  0
SECTION
  2
HEADER
  9
$ACADVER
  1
AC1015
  9
$ACADMAINTVER
 70
     6
  9
$DWGCODEPAGE
  3
ANSI_1253
  9
$INSBASE
 10
0.0
 20
0.0
 30
0.0
  9
$EXTMIN
 10
0.0
 20
0.0
 30
0.0
  9
$EXTMAX
 10
594.0
 20
420.0
 30
0.0
  9
$LIMMIN
 10
0.0
 20
0.0
  9
$LIMMAX
 10
594.0
 20
420.0
  9
$ORTHOMODE
 70
     0
  9
$REGENMODE
 70
     1
  9
$FILLMODE
 70
     1
  9
$QTEXTMODE
 70
     0
  9
$MIRRTEXT
 70
     1
  9
$LTSCALE
 40
2.0
  9
$ATTMODE
 70
     1
  9
$TEXTSIZE
 40
6.0
  9
$TRACEWID
 40
1.0
  9
$TEXTSTYLE
  7
Standard
  9
$CLAYER
  8
0
  9
$CELTYPE
  6
ByLayer
  9
$CECOLOR
 62
   256
  9
$CELTSCALE
 40
1.0
  9
$DISPSILH
 70
     0
  9
$DIMSCALE
 40
1.0
  9
$DIMASZ
 40
6.604
  9
$DIMEXO
 40
1.0
  9
$DIMDLI
 40
3.75
  9
$DIMRND
 40
0.0
  9
$DIMDLE
 40
0.0
  9
$DIMEXE
 40
1.0
  9
$DIMTP
 40
0.0
  9
$DIMTM
 40
0.0
  9
$DIMTXT
 40
6.0
  9
$DIMCEN
 40
2.5
  9
$DIMTSZ
 40
0.0
  9
$DIMTOL
 70
     0
  9
$DIMLIM
 70
     0
  9
$DIMTIH
 70
     1
  9
$DIMTOH
 70
     1
  9
$DIMSE1
 70
     0
  9
$DIMSE2
 70
     0
  9
$DIMTAD
 70
     1
  9
$DIMZIN
 70
     1
  9
$DIMBLK
  1

  9
$DIMASO
 70
     1
  9
$DIMSHO
 70
     1
  9
$DIMPOST
  1

  9
$DIMAPOST
  1

  9
$DIMALT
 70
     0
  9
$DIMALTD
 70
     3
  9
$DIMALTF
 40
0.0393700787
  9
$DIMLFAC
 40
1.0
  9
$DIMTOFL
 70
     1
  9
$DIMTVP
 40
0.0
  9
$DIMTIX
 70
     0
  9
$DIMSOXD
 70
     0
  9
$DIMSAH
 70
     0
  9
$DIMBLK1
  1

  9
$DIMBLK2
  1

  9
$DIMSTYLE
  2
ISO-25
  9
$DIMCLRD
 70
     0
  9
$DIMCLRE
 70
     0
  9
$DIMCLRT
 70
     0
  9
$DIMTFAC
 40
1.0
  9
$DIMGAP
 40
3.048
  9
$DIMJUST
 70
     0
  9
$DIMSD1
 70
     0
  9
$DIMSD2
 70
     0
  9
$DIMTOLJ
 70
     0
  9
$DIMTZIN
 70
     1
  9
$DIMALTZ
 70
     0
  9
$DIMALTTZ
 70
     0
  9
$DIMUPT
 70
     0
  9
$DIMDEC
 70
     1
  9
$DIMTDEC
 70
     1
  9
$DIMALTU
 70
     2
  9
$DIMALTTD
 70
     3
  9
$DIMTXSTY
  7
Standard
  9
$DIMAUNIT
 70
     0
  9
$DIMADEC
 70
     1
  9
$DIMALTRND
 40
0.0
  9
$DIMAZIN
 70
     0
  9
$DIMDSEP
 70
    44
  9
$DIMATFIT
 70
     3
  9
$DIMFRAC
 70
     0
  9
$DIMLDRBLK
  1

  9
$DIMLUNIT
 70
     2
  9
$DIMLWD
 70
    -2
  9
$DIMLWE
 70
    -2
  9
$DIMTMOVE
 70
     0
  9
$LUNITS
 70
     2
  9
$LUPREC
 70
     3
  9
$SKETCHINC
 40
1.0
  9
$FILLETRAD
 40
0.0
  9
$AUNITS
 70
     0
  9
$AUPREC
 70
     2
  9
$MENU
  1
.
  9
$ELEVATION
 40
0.0
  9
$PELEVATION
 40
0.0
  9
$THICKNESS
 40
0.0
  9
$LIMCHECK
 70
     0
  9
$CHAMFERA
 40
0.0
  9
$CHAMFERB
 40
0.0
  9
$CHAMFERC
 40
0.0
  9
$CHAMFERD
 40
0.0
  9
$SKPOLY
 70
     0
  9
$TDCREATE
 40
2460088.563958241
  9
$TDUCREATE
 40
2460088.438958241
  9
$TDUPDATE
 40
2460088.5639586
  9
$TDUUPDATE
 40
2460088.4389586
  9
$TDINDWG
 40
0.0000000116
  9
$TDUSRTIMER
 40
0.0000000116
  9
$USRTIMER
 70
     1
  9
$ANGBASE
 50
0.0
  9
$ANGDIR
 70
     0
  9
$PDMODE
 70
     0
  9
$PDSIZE
 40
-1.0
  9
$PLINEWID
 40
0.0
  9
$SPLFRAME
 70
     0
  9
$SPLINETYPE
 70
     6
  9
$SPLINESEGS
 70
     8
  9
$HANDSEED
  5
21E
  9
$SURFTAB1
 70
     6
  9
$SURFTAB2
 70
     6
  9
$SURFTYPE
 70
     6
  9
$SURFU
 70
     6
  9
$SURFV
 70
     6
  9
$UCSBASE
  2

  9
$UCSNAME
  2

  9
$UCSORG
 10
0.0
 20
0.0
 30
0.0
  9
$UCSXDIR
 10
1.0
 20
0.0
 30
0.0
  9
$UCSYDIR
 10
0.0
 20
1.0
 30
0.0
  9
$UCSORTHOREF
  2

  9
$UCSORTHOVIEW
 70
     0
  9
$UCSORGTOP
 10
0.0
 20
0.0
 30
0.0
  9
$UCSORGBOTTOM
 10
0.0
 20
0.0
 30
0.0
  9
$UCSORGLEFT
 10
0.0
 20
0.0
 30
0.0
  9
$UCSORGRIGHT
 10
0.0
 20
0.0
 30
0.0
  9
$UCSORGFRONT
 10
0.0
 20
0.0
 30
0.0
  9
$UCSORGBACK
 10
0.0
 20
0.0
 30
0.0
  9
$PUCSBASE
  2

  9
$PUCSNAME
  2

  9
$PUCSORG
 10
0.0
 20
0.0
 30
0.0
  9
$PUCSXDIR
 10
1.0
 20
0.0
 30
0.0
  9
$PUCSYDIR
 10
0.0
 20
1.0
 30
0.0
  9
$PUCSORTHOREF
  2

  9
$PUCSORTHOVIEW
 70
     0
  9
$PUCSORGTOP
 10
0.0
 20
0.0
 30
0.0
  9
$PUCSORGBOTTOM
 10
0.0
 20
0.0
 30
0.0
  9
$PUCSORGLEFT
 10
0.0
 20
0.0
 30
0.0
  9
$PUCSORGRIGHT
 10
0.0
 20
0.0
 30
0.0
  9
$PUCSORGFRONT
 10
0.0
 20
0.0
 30
0.0
  9
$PUCSORGBACK
 10
0.0
 20
0.0
 30
0.0
  9
$USERI1
 70
     0
  9
$USERI2
 70
     0
  9
$USERI3
 70
     0
  9
$USERI4
 70
     0
  9
$USERI5
 70
     0
  9
$USERR1
 40
0.0
  9
$USERR2
 40
0.0
  9
$USERR3
 40
0.0
  9
$USERR4
 40
0.0
  9
$USERR5
 40
0.0
  9
$WORLDVIEW
 70
     1
  9
$SHADEDGE
 70
     3
  9
$SHADEDIF
 70
    70
  9
$TILEMODE
 70
     1
  9
$MAXACTVP
 70
    64
  9
$PINSBASE
 10
0.0
 20
0.0
 30
0.0
  9
$PLIMCHECK
 70
     0
  9
$PEXTMIN
 10
1.0000000000E+20
 20
1.0000000000E+20
 30
1.0000000000E+20
  9
$PEXTMAX
 10
-1.0000000000E+20
 20
-1.0000000000E+20
 30
-1.0000000000E+20
  9
$PLIMMIN
 10
0.0
 20
0.0
  9
$PLIMMAX
 10
420.0
 20
297.0
  9
$UNITMODE
 70
     0
  9
$VISRETAIN
 70
     1
  9
$PLINEGEN
 70
     0
  9
$PSLTSCALE
 70
     1
  9
$TREEDEPTH
 70
  3020
  9
$CMLSTYLE
  2
Standard
  9
$CMLJUST
 70
     0
  9
$CMLSCALE
 40
20.0
  9
$PROXYGRAPHICS
 70
     1
  9
$MEASUREMENT
 70
     1
  9
$CELWEIGHT
370
    -1
  9
$ENDCAPS
280
     0
  9
$JOINSTYLE
280
     0
  9
$LWDISPLAY
290
     1
  9
$INSUNITS
 70
     4
  9
$HYPERLINKBASE
  1

  9
$STYLESHEET
  1

  9
$XEDIT
290
     1
  9
$CEPSNTYPE
380
     0
  9
$PSTYLEMODE
290
     1
  9
$FINGERPRINTGUID
  2
{35aff969-bc7b-470a-b325-3edf124ef214}
  9
$VERSIONGUID
  2
{FAEB1C32-E019-11D5-929B-00C0DF256EC4}
  9
$EXTNAMES
290
     1
  9
$PSVPSCALE
 40
0.0
  9
$OLESTARTUP
290
     0
  0
ENDSEC
  0
SECTION
  2
CLASSES
  0
CLASS
  1
ACDBDICTIONARYWDFLT
  2
AcDbDictionaryWithDefault
  3
ObjectDBX Classes
 90
        0
280
     0
281
     0
  0
CLASS
  1
VISUALSTYLE
  2
AcDbVisualStyle
  3
ObjectDBX Classes
 90
     4095
280
     0
281
     0
  0
CLASS
  1
MATERIAL
  2
AcDbMaterial
  3
ObjectDBX Classes
 90
     1153
280
     0
281
     0
  0
CLASS
  1
SCALE
  2
AcDbScale
  3
ObjectDBX Classes
 90
     1153
280
     0
281
     0
  0
CLASS
  1
TABLESTYLE
  2
AcDbTableStyle
  3
ObjectDBX Classes
 90
     4095
280
     0
281
     0
  0
CLASS
  1
MLEADERSTYLE
  2
AcDbMLeaderStyle
  3
ACDB_MLEADERSTYLE_CLASS
 90
     4095
280
     0
281
     0
  0
CLASS
  1
SUN
  2
AcDbSun
  3
SCENEOE
 90
     1153
280
     0
281
     0
  0
CLASS
  1
ACDBPLACEHOLDER
  2
AcDbPlaceHolder
  3
ObjectDBX Classes
 90
        0
280
     0
281
     0
  0
CLASS
  1
LAYOUT
  2
AcDbLayout
  3
ObjectDBX Classes
 90
        0
280
     0
281
     0
  0
ENDSEC
  0
SECTION
  2
TABLES
  0
TABLE
  2
VPORT
  5
8
330
0
100
AcDbSymbolTable
 70
     1
  0
VPORT
  5
29
330
8
100
AcDbSymbolTableRecord
100
AcDbViewportTableRecord
  2
*Active
 70
     0
 10
0.0
 20
0.0
 11
1.0
 21
1.0
 12
297.0
 22
210.0
 13
0.0
 23
0.0
 14
10.0
 24
10.0
 15
10.0
 25
10.0
 16
0.0
 26
0.0
 36
1.0
 17
0.0
 27
0.0
 37
0.0
 40
420.0
 41
1.4142857143
 42
50.0
 43
0.0
 44
0.0
 50
0.0
 51
0.0
 71
     0
 72
  2000
 73
     1
 74
     3
 75
     0
 76
     0
 77
     0
 78
     0
281
     0
 65
     1
110
0.0
120
0.0
130
0.0
111
1.0
121
0.0
131
0.0
112
0.0
122
1.0
132
0.0
 79
     0
146
0.0
  0
ENDTAB
  0
TABLE
  2
LTYPE
  5
5
330
0
100
AcDbSymbolTable
 70
     6
  0
LTYPE
  5
14
330
5
100
AcDbSymbolTableRecord
100
AcDbLinetypeTableRecord
  2
ByBlock
 70
     0
  3

 72
    65
 73
     0
 40
0.0
  0
LTYPE
  5
15
330
5
100
AcDbSymbolTableRecord
100
AcDbLinetypeTableRecord
  2
ByLayer
 70
     0
  3

 72
    65
 73
     0
 40
0.0
  0
LTYPE
  5
16
330
5
100
AcDbSymbolTableRecord
100
AcDbLinetypeTableRecord
  2
Continuous
 70
     0
  3
Solid line
 72
    65
 73
     0
 40
0.0
  0
LTYPE
  5
5E
330
5
100
AcDbSymbolTableRecord
100
AcDbLinetypeTableRecord
  2
HIDDEN
 70
     0
  3
Hidden __ __ __ __ __ __ __ __ __ __ __ __ __ __
 72
    65
 73
     2
 40
1.905
 49
1.27
 74
     0
 49
-0.635
 74
     0
  0
LTYPE
  5
5F
330
5
100
AcDbSymbolTableRecord
100
AcDbLinetypeTableRecord
  2
PHANTOM
 70
     0
  3
Phantom ______  __  __  ______  __  __  ______
 72
    65
 73
     6
 40
12.7
 49
6.35
 74
     0
 49
-1.27
 74
     0
 49
1.27
 74
     0
 49
-1.27
 74
     0
 49
1.27
 74
     0
 49
-1.27
 74
     0
  0
LTYPE
  5
60
330
5
100
AcDbSymbolTableRecord
100
AcDbLinetypeTableRecord
  2
CENTER
 70
     0
  3
Center ____ _ ____ _ ____ _ ____ _ ____ _ ____
 72
    65
 73
     4
 40
10.16
 49
6.35
 74
     0
 49
-1.27
 74
     0
 49
1.27
 74
     0
 49
-1.27
 74
     0
  0
LTYPE
  5
61
330
5
100
AcDbSymbolTableRecord
100
AcDbLinetypeTableRecord
  2
CENTERX2
 70
     0
  3
Center (2x) ________  __  ________  __  _____
 72
    65
 73
     4
 40
20.32
 49
12.7
 74
     0
 49
-2.54
 74
     0
 49
2.54
 74
     0
 49
-2.54
 74
     0
  0
LTYPE
  5
62
330
5
100
AcDbSymbolTableRecord
100
AcDbLinetypeTableRecord
  2
DOT2
 70
     0
  3
Dot (.5x) ........................................
 72
    65
 73
     2
 40
0.635
 49
0.0
 74
     0
 49
-0.635
 74
     0
  0
ENDTAB
  0
TABLE
  2
LAYER
  5
2
330
0
100
AcDbSymbolTable
 70
     1
  0
LAYER
  5
10
330
2
100
AcDbSymbolTableRecord
100
AcDbLayerTableRecord
  2
0
 70
     0
 62
     7
  6
Continuous
370
    -3
390
F
  0
ENDTAB
  0
TABLE
  2
STYLE
  5
3
330
0
100
AcDbSymbolTable
 70
     1
  0
STYLE
  5
11
330
3
100
AcDbSymbolTableRecord
100
AcDbTextStyleTableRecord
  2
Standard
 70
     0
 40
0.0
 41
1.0
 50
0.0
 71
     0
 42
6.0
  3
txt
  4

  0
ENDTAB
  0
TABLE
  2
VIEW
  5
6
330
0
100
AcDbSymbolTable
 70
     0
  0
ENDTAB
  0
TABLE
  2
UCS
  5
7
330
0
100
AcDbSymbolTable
 70
     0
  0
ENDTAB
  0
TABLE
  2
APPID
  5
9
330
0
100
AcDbSymbolTable
 70
     1
  0
APPID
  5
12
330
9
100
AcDbSymbolTableRecord
100
AcDbRegAppTableRecord
  2
ACAD
 70
     0
  0
ENDTAB
  0
TABLE
  2
DIMSTYLE
  5
A
330
0
100
AcDbSymbolTable
 70
     1
100
AcDbDimStyleTable
  0
DIMSTYLE
105
27
330
A
100
AcDbSymbolTableRecord
100
AcDbDimStyleTableRecord
  2
ISO-25
 70
     0
 41
2.5
 42
0.625
 43
3.75
 44
1.25
 73
     0
 74
     0
 77
     1
 78
     8
140
2.5
141
2.5
143
0.0393700787
147
0.625
171
     3
172
     1
178
     0
271
     2
272
     2
274
     3
278
    44
283
     0
284
     8
340
11
  0
ENDTAB
  0
TABLE
  2
BLOCK_RECORD
  5
1
330
0
100
AcDbSymbolTable
 70
     3
  0
BLOCK_RECORD
  5
1F
330
1
100
AcDbSymbolTableRecord
100
AcDbBlockTableRecord
  2
*Model_Space
340
22
  0
BLOCK_RECORD
  5
1B
330
1
100
AcDbSymbolTableRecord
100
AcDbBlockTableRecord
  2
*Paper_Space
340
1E
  0
BLOCK_RECORD
  5
23
330
1
100
AcDbSymbolTableRecord
100
AcDbBlockTableRecord
  2
*Paper_Space0
340
26
  0
BLOCK_RECORD
  5
63
330
1
100
AcDbSymbolTableRecord
100
AcDbBlockTableRecord
  2
Block1
340
0
  0
BLOCK_RECORD
  5
211
330
1
100
AcDbSymbolTableRecord
100
AcDbBlockTableRecord
  2
SW_CENTERMARKSYMBOL_0
340
0
102
{BLKREFS
331
21C
102
}
  0
ENDTAB
  0
ENDSEC
  0
SECTION
  2
BLOCKS
  0
BLOCK
  5
20
330
1F
100
AcDbEntity
  8
0
100
AcDbBlockBegin
  2
*Model_Space
 70
     0
 10
0.0
 20
0.0
 30
0.0
  3
*Model_Space
  1

  0
ENDBLK
  5
21
330
1F
100
AcDbEntity
  8
0
100
AcDbBlockEnd
  0
BLOCK
  5
1C
330
1B
100
AcDbEntity
 67
     1
  8
0
100
AcDbBlockBegin
  2
*Paper_Space
 70
     0
 10
0.0
 20
0.0
 30
0.0
  3
*Paper_Space
  1

  0
ENDBLK
  5
1D
330
1B
100
AcDbEntity
 67
     1
  8
0
100
AcDbBlockEnd
  0
BLOCK
  5
24
330
23
100
AcDbEntity
  8
0
100
AcDbBlockBegin
  2
*Paper_Space0
 70
     0
 10
0.0
 20
0.0
 30
0.0
  3
*Paper_Space0
  1

  0
ENDBLK
  5
25
330
23
100
AcDbEntity
  8
0
100
AcDbBlockEnd
  0
BLOCK
  5
64
330
63
100
AcDbEntity
  8
0
100
AcDbBlockBegin
  2
Block1
 70
     0
 10
0.0
 20
0.0
 30
0.0
  3
Block1
  1

  0
CIRCLE
  5
66
330
63
100
AcDbEntity
  8
0
  6
Continuous
 62
     7
370
    18
100
AcDbCircle
 10
12.4961400521
 20
0.0
 30
0.0
 40
3.976565042212953
  0
CIRCLE
  5
67
330
63
100
AcDbEntity
  8
0
  6
Continuous
 62
     7
370
    18
100
AcDbCircle
 10
12.4961400521
 20
0.0
 30
0.0
 40
1.896552315501957
  0
LINE
  5
68
330
63
100
AcDbEntity
  8
0
  6
Continuous
 62
     7
370
    18
100
AcDbLine
 10
-6.4757930526
 20
3.692737301
 30
0.0
 11
-6.4757930526
 21
-3.9765650422
 31
0.0
  0
LINE
  5
69
330
63
100
AcDbEntity
  8
0
  6
Continuous
 62
     7
370
    18
100
AcDbLine
 10
-6.4757930526
 20
-3.9765650422
 30
0.0
 11
6.5839562473
 21
-1.8965523155
 31
0.0
  0
LINE
  5
6A
330
63
100
AcDbEntity
  8
0
  6
Continuous
 62
     7
370
    18
100
AcDbLine
 10
6.5839562473
 20
-1.8965523155
 30
0.0
 11
6.5839562473
 21
1.8663674881
 31
0.0
  0
LINE
  5
6B
330
63
100
AcDbEntity
  8
0
  6
Continuous
 62
     7
370
    18
100
AcDbLine
 10
6.5839562473
 20
1.8663674881
 30
0.0
 11
-6.4757930526
 21
3.692737301
 31
0.0
  0
ENDBLK
  5
65
330
63
100
AcDbEntity
  8
0
100
AcDbBlockEnd
  0
BLOCK
  5
212
330
211
100
AcDbEntity
  8
0
100
AcDbBlockBegin
  2
SW_CENTERMARKSYMBOL_0
 70
     0
 10
0.0
 20
0.0
 30
0.0
  3
SW_CENTERMARKSYMBOL_0
  1

  0
LINE
  5
214
330
211
100
AcDbEntity
  8
0
  6
Continuous
 62
     0
370
    18
100
AcDbLine
 10
0.0
 20
0.0
 30
0.0
 11
0.0
 21
2.5
 31
0.0
  0
LINE
  5
215
330
211
100
AcDbEntity
  8
0
  6
Continuous
 62
     0
370
    18
100
AcDbLine
 10
0.0
 20
0.0
 30
0.0
 11
-2.5
 21
0.0
 31
0.0
  0
LINE
  5
216
330
211
100
AcDbEntity
  8
0
  6
Continuous
 62
     0
370
    18
100
AcDbLine
 10
0.0
 20
0.0
 30
0.0
 11
0.0
 21
-2.5
 31
0.0
  0
LINE
  5
217
330
211
100
AcDbEntity
  8
0
  6
Continuous
 62
     0
370
    18
100
AcDbLine
 10
0.0
 20
0.0
 30
0.0
 11
2.5
 21
0.0
 31
0.0
  0
LINE
  5
218
330
211
100
AcDbEntity
  8
0
  6
Continuous
 62
     0
370
    18
100
AcDbLine
 10
0.0
 20
2.5
 30
0.0
 11
0.0
 21
4.6
 31
0.0
  0
LINE
  5
219
330
211
100
AcDbEntity
  8
0
  6
Continuous
 62
     0
370
    18
100
AcDbLine
 10
-2.5
 20
0.0
 30
0.0
 11
-4.6
 21
0.0
 31
0.0
  0
LINE
  5
21A
330
211
100
AcDbEntity
  8
0
  6
Continuous
 62
     0
370
    18
100
AcDbLine
 10
0.0
 20
-2.5
 30
0.0
 11
0.0
 21
-4.6
 31
0.0
  0
LINE
  5
21B
330
211
100
AcDbEntity
  8
0
  6
Continuous
 62
     0
370
    18
100
AcDbLine
 10
2.5
 20
0.0
 30
0.0
 11
4.6
 21
0.0
 31
0.0
  0
ENDBLK
  5
213
330
211
100
AcDbEntity
  8
0
100
AcDbBlockEnd
  0
ENDSEC
  0
SECTION
  2
ENTITIES
  0
LINE
  5
6C
330
1F
100
AcDbEntity
  8
0
  6
Continuous
 62
     7
370
    25
100
AcDbLine
 10
212.4454545455
 20
106.2090909091
 30
0.0
 11
211.8454545455
 21
105.6090909091
 31
0.0
  0
LINE
  5
6D
330
1F
100
AcDbEntity
  8
0
  6
Continuous
 62
     7
370
    25
100
AcDbLine
 10
211.8454545455
 20
98.4090909091
 30
0.0
 11
212.4454545455
 21
97.8090909091
 31
0.0
  0
LINE
  5
6E
330
1F
100
AcDbEntity
  8
0
  6
Continuous
 62
     7
370
    25
100
AcDbLine
 10
212.9454545455
 20
106.2090909091
 30
0.0
 11
212.4454545455
 21
106.2090909091
 31
0.0
  0
LINE
  5
6F
330
1F
100
AcDbEntity
  8
0
  6
Continuous
 62
     7
370
    25
100
AcDbLine
 10
212.4454545455
 20
97.8090909091
 30
0.0
 11
212.9454545455
 21
97.8090909091
 31
0.0
  0
LINE
  5
70
330
1F
100
AcDbEntity
  8
0
  6
Continuous
 62
     7
370
    25
100
AcDbLine
 10
209.8312409831
 20
104.0090909091
 30
0.0
 11
209.0954544641
 21
104.0090909091
 31
0.0
  0
LINE
  5
71
330
1F
100
AcDbEntity
  8
0
  6
Continuous
 62
     7
370
    25
100
AcDbLine
 10
209.0954544764
 20
100.0090909091
 30
0.0
 11
209.8312409831
 21
100.0090909091
 31
0.0
  0
LINE
  5
72
330
1F
100
AcDbEntity
  8
0
  6
Continuous
 62
     7
370
    25
100
AcDbLine
 10
73.2454545455
 20
97.8090909091
 30
0.0
 11
73.8454545455
 21
98.4090909091
 31
0.0
  0
LINE
  5
73
330
1F
100
AcDbEntity
  8
0
  6
Continuous
 62
     7
370
    25
100
AcDbLine
 10
73.8454545455
 20
105.6090909091
 30
0.0
 11
73.2454545455
 21
106.2090909091
 31
0.0
  0
LINE
  5
74
330
1F
100
AcDbEntity
  8
0
  6
Continuous
 62
     7
370
    25
100
AcDbLine
 10
72.7454545455
 20
97.8090909091
 30
0.0
 11
73.2454545455
 21
97.8090909091
 31
0.0
  0
LINE
  5
75
330
1F
100
AcDbEntity
  8
0
  6
Continuous
 62
     7
370
    25
100
AcDbLine
 10
73.2454545455
 20
106.2090909091
 30
0.0
 11
72.7454545455
 21
106.2090909091
 31
0.0
  0
LINE
  5
76
330
1F
100
AcDbEntity
  8
0
  6
Continuous
 62
     7
370
    25
100
AcDbLine
 10
75.8596681078
 20
100.0090909091
 30
0.0
 11
76.5954545995
 21
100.0090909091
 31
0.0
  0
LINE
  5
77
330
1F
100
AcDbEntity
  8
0
  6
Continuous
 62
     7
370
    25
100
AcDbLine
 10
76.5954545805
 20
104.0090909091
 30
0.0
 11
75.8596681078
 21
104.0090909091
 31
0.0
  0
LINE
  5
78
330
1F
100
AcDbEntity
  8
0
  6
Continuous
 62
     7
370
    25
100
AcDbLine
 10
73.8454545455
 20
120.0090909091
 30
0.0
 11
211.8454545455
 21
120.0090909091
 31
0.0
  0
LINE
  5
79
330
1F
100
AcDbEntity
  8
0
  6
Continuous
 62
     7
370
    25
100
AcDbLine
 10
211.8454545455
 20
84.0090909091
 30
0.0
 11
73.8454545455
 21
84.0090909091
 31
0.0
  0
LINE
  5
7A
330
1F
100
AcDbEntity
  8
0
  6
Continuous
 62
     7
370
    25
100
AcDbLine
 10
73.8454545455
 20
84.0090909091
 30
0.0
 11
73.8454545455
 21
120.0090909091
 31
0.0
  0
LINE
  5
7B
330
1F
100
AcDbEntity
  8
0
  6
Continuous
 62
     7
370
    25
100
AcDbLine
 10
75.8454545455
 20
118.0090909091
 30
0.0
 11
209.8454545455
 21
118.0090909091
 31
0.0
  0
LINE
  5
7C
330
1F
100
AcDbEntity
  8
0
  6
Continuous
 62
     7
370
    25
100
AcDbLine
 10
75.8454545455
 20
86.0090909091
 30
0.0
 11
75.8454545455
 21
118.0090909091
 31
0.0
  0
LINE
  5
7D
330
1F
100
AcDbEntity
  8
0
  6
Continuous
 62
     7
370
    25
100
AcDbLine
 10
211.8454545455
 20
120.0090909091
 30
0.0
 11
211.8454545455
 21
84.0090909091
 31
0.0
  0
LINE
  5
7E
330
1F
100
AcDbEntity
  8
0
  6
Continuous
 62
     7
370
    25
100
AcDbLine
 10
209.8454545455
 20
118.0090909091
 30
0.0
 11
209.8454545455
 21
86.0090909091
 31
0.0
  0
LINE
  5
7F
330
1F
100
AcDbEntity
  8
0
  6
Continuous
 62
     7
370
    25
100
AcDbLine
 10
209.8454545455
 20
86.0090909091
 30
0.0
 11
75.8454545455
 21
86.0090909091
 31
0.0
  0
LINE
  5
80
330
1F
100
AcDbEntity
  8
0
  6
Continuous
 62
     7
370
    25
100
AcDbLine
 10
212.4454545455
 20
106.2090909091
 30
0.0
 11
212.4454545455
 21
97.8090909091
 31
0.0
  0
LINE
  5
81
330
1F
100
AcDbEntity
  8
0
  6
Continuous
 62
     7
370
    25
100
AcDbLine
 10
212.9454545455
 20
106.2090909091
 30
0.0
 11
212.9454545455
 21
97.8090909091
 31
0.0
  0
LINE
  5
82
330
1F
100
AcDbEntity
  8
0
  6
Continuous
 62
     7
370
    25
100
AcDbLine
 10
73.2454545455
 20
102.0090909091
 30
0.0
 11
73.2454545455
 21
106.2090909091
 31
0.0
  0
LINE
  5
83
330
1F
100
AcDbEntity
  8
0
  6
Continuous
 62
     7
370
    25
100
AcDbLine
 10
73.2454545455
 20
97.8090909091
 30
0.0
 11
73.2454545455
 21
102.0090909091
 31
0.0
  0
LINE
  5
84
330
1F
100
AcDbEntity
  8
0
  6
Continuous
 62
     7
370
    25
100
AcDbLine
 10
72.7454545455
 20
102.0090909091
 30
0.0
 11
72.7454545455
 21
106.2090909091
 31
0.0
  0
LINE
  5
85
330
1F
100
AcDbEntity
  8
0
  6
Continuous
 62
     7
370
    25
100
AcDbLine
 10
72.7454545455
 20
97.8090909091
 30
0.0
 11
72.7454545455
 21
102.0090909091
 31
0.0
  0
ARC
  5
86
330
1F
100
AcDbEntity
  8
0
  6
Continuous
 62
     7
370
    25
100
AcDbCircle
 10
66.6068106413
 20
135.3545331381
 30
0.0
 40
46.55304163293049
100
AcDbArc
 50
293.5231962752
 51
299.8056252666
  0
LWPOLYLINE
  5
87
330
1F
100
AcDbEntity
  8
0
  6
Continuous
 62
     7
370
    25
100
AcDbPolyline
 90
       11
 70
   128
 43
0.0
 10
85.1870791036
 20
92.6708631612
 10
84.0040392829
 20
92.0778314022
 10
82.8016216923
 20
91.4728565645
 10
81.5450450176
 20
90.8421209047
 10
80.4104343614
 20
90.2713096548
 10
79.8457826613
 20
89.9891919861
 10
79.3535657347
 20
89.7413280945
 10
78.8176485695
 20
89.4710758478
 10
78.4037928605
 20
89.2640636796
 10
78.0796850635
 20
89.1009784539
 10
77.8978466844
 20
89.0093826997
  0
ARC
  5
88
330
1F
100
AcDbEntity
  8
0
  6
Continuous
 62
     7
370
    25
100
AcDbCircle
 10
77.8952728381
 20
89.3093214156
 30
0.0
 40
0.300138111157729
100
AcDbArc
 50
179.230609069
 51
270.4912693282
  0
LWPOLYLINE
  5
89
330
1F
100
AcDbEntity
  8
0
  6
Continuous
 62
     7
370
    25
100
AcDbPolyline
 90
       14
 70
   128
 43
0.0
 10
77.5959379195
 20
89.3133569059
 10
77.6052158559
 20
89.3265834902
 10
77.6207398656
 20
89.3627174046
 10
77.6429594684
 20
89.4203309885
 10
77.7532809679
 20
89.6919070944
 10
77.8787852898
 20
89.9966110287
 10
78.0807186562
 20
90.4896827608
 10
78.3253096374
 20
91.0722080739
 10
78.5560861041
 20
91.6284230014
 10
78.8632200567
 20
92.3785306138
 10
79.2308834564
 20
93.2650756227
 10
79.7629640118
 20
94.5508804
 10
80.3652848129
 20
96.0112119579
 10
81.0424436598
 20
97.6460702962
  0
LWPOLYLINE
  5
8A
330
1F
100
AcDbEntity
  8
0
  6
Continuous
 62
     7
370
    25
100
AcDbPolyline
 90
        4
 70
   128
 43
0.0
 10
81.0424436598
 20
97.6460702962
 10
81.4335567655
 20
98.5962723857
 10
81.8658866073
 20
99.6360014593
 10
82.7964756605
 20
101.8903745703
  0
ARC
  5
8B
330
1F
100
AcDbEntity
  8
0
  6
Continuous
 62
     7
370
    25
100
AcDbCircle
 10
89.8454545455
 20
102.0090909091
 30
0.0
 40
7.050000000000036
100
AcDbArc
 50
180.9648589222
 51
269.1951660713
  0
LWPOLYLINE
  5
8C
330
1F
100
AcDbEntity
  8
0
  6
Continuous
 62
     7
370
    25
100
AcDbPolyline
 90
        4
 70
   128
 43
0.0
 10
204.6484654311
 20
106.3721115219
 10
204.2572778711
 20
105.4203841655
 10
203.8078361849
 20
104.3392319502
 10
202.8944379077
 20
102.1278410102
  0
ARC
  5
8D
330
1F
100
AcDbEntity
  8
0
  6
Continuous
 62
     7
370
    25
100
AcDbCircle
 10
195.8454545455
 20
102.0090909091
 30
0.0
 40
7.049999999999961
100
AcDbArc
 50
0.9651327359
 51
89.1948546513
  0
LWPOLYLINE
  5
8E
330
1F
100
AcDbEntity
  8
0
  6
Continuous
 62
     7
370
    25
100
AcDbPolyline
 90
        5
 70
   128
 43
0.0
 10
195.9445219491
 20
109.0583367732
 10
197.2967275241
 20
109.7358694197
 10
198.5350718162
 20
110.3595307972
 10
199.6001627542
 20
110.8955826356
 10
200.5038299873
 20
111.347318657
  0
ARC
  5
8F
330
1F
100
AcDbEntity
  8
0
  6
Continuous
 62
     7
370
    25
100
AcDbCircle
 10
-14.7248334688
 20
548.9678041598
 30
0.0
 40
487.6826988668038
100
AcDbArc
 50
296.1887269515
 51
297.1470624274
  0
ARC
  5
90
330
1F
100
AcDbEntity
  8
0
  6
Continuous
 62
     7
370
    25
100
AcDbCircle
 10
207.7960013378
 20
114.7092253771
 30
0.0
 40
0.2997771145347834
100
AcDbArc
 50
359.1664167159
 51
90.5616685482
  0
LWPOLYLINE
  5
91
330
1F
100
AcDbEntity
  8
0
  6
Continuous
 62
     7
370
    25
100
AcDbPolyline
 90
       12
 70
   128
 43
0.0
 10
208.0949708944
 20
114.7048589076
 10
207.9025083556
 20
114.2427760667
 10
207.6346187007
 20
113.5930918591
 10
207.4908269393
 20
113.2464771415
 10
207.3352800811
 20
112.8708285054
 10
207.1681063981
 20
112.4661459511
 10
206.9895572232
 20
112.0324294783
 10
206.5692079624
 20
111.0177284163
 10
206.1995448559
 20
110.1227400698
 10
205.7401773103
 20
109.0098330064
 10
205.2393510356
 20
107.800253857
 10
204.6484654311
 20
106.3721115219
  0
LWPOLYLINE
  5
92
330
1F
100
AcDbEntity
  8
0
  6
Continuous
 62
     7
370
    25
100
AcDbPolyline
 90
        5
 70
   128
 43
0.0
 10
200.5038299873
 20
92.6708631612
 10
199.6064028599
 20
93.1209321357
 10
198.552954115
 20
93.6504576859
 10
197.3083324982
 20
94.2752818152
 10
195.9444835744
 20
94.9598577479
  0
ARC
  5
93
330
1F
100
AcDbEntity
  8
0
  6
Continuous
 62
     7
370
    25
100
AcDbCircle
 10
195.8454545455
 20
102.0090909091
 30
0.0
 40
7.049999999999994
100
AcDbArc
 50
270.8048338971
 51
359.0353119954
  0
LWPOLYLINE
  5
94
330
1F
100
AcDbEntity
  8
0
  6
Continuous
 62
     7
370
    25
100
AcDbPolyline
 90
        5
 70
   128
 43
0.0
 10
204.6492741566
 20
97.6460669673
 10
204.2496987379
 20
98.6179147954
 10
203.856706472
 20
99.5605706638
 10
203.4204829613
 20
100.6189184121
 10
202.8944884476
 20
101.8903958071
  0
LWPOLYLINE
  5
95
330
1F
100
AcDbEntity
  8
0
  6
Continuous
 62
     7
370
    25
100
AcDbPolyline
 90
       20
 70
   128
 43
0.0
 10
208.0955863312
 20
89.3132985247
 10
208.0781364343
 20
89.3480850201
 10
208.0681961754
 20
89.3714031618
 10
208.05626783
 20
89.4005101376
 10
208.0422478206
 20
89.435507784
 10
207.9535235302
 20
89.6525253648
 10
207.8849899448
 20
89.8181045538
 10
207.7396706148
 20
90.1761016605
 10
207.528005211
 20
90.6883548337
 10
207.3188526475
 20
91.1843116104
 10
207.1462051059
 20
91.5999351088
 10
206.8634775443
 20
92.2902429557
 10
206.5805687074
 20
92.9737672615
 10
206.3021471053
 20
93.6459179923
 10
205.9748166752
 20
94.4402188031
 10
205.7370537914
 20
95.0137459438
 10
205.5186414772
 20
95.5398518669
 10
205.3526436776
 20
95.9444866362
 10
205.071884408
 20
96.6291984011
 10
204.6492741566
 20
97.6460669673
  0
ARC
  5
96
330
1F
100
AcDbEntity
  8
0
  6
Continuous
 62
     7
370
    25
100
AcDbCircle
 10
207.7956908129
 20
89.309265726
 30
0.0
 40
0.3000830661198192
100
AcDbArc
 50
269.4985791055
 51
0.7700435785
  0
LWPOLYLINE
  5
97
330
1F
100
AcDbEntity
  8
0
  6
Continuous
 62
     7
370
    25
100
AcDbPolyline
 90
       10
 70
   128
 43
0.0
 10
207.7930642724
 20
89.0093825169
 10
207.598039188
 20
89.1076681094
 10
207.2578101589
 20
89.2785773938
 10
206.8289721069
 20
89.4933599952
 10
206.2960624279
 20
89.7620127651
 10
205.8015049162
 20
90.0110411958
 10
205.2357457483
 20
90.2937343488
 10
203.7086540838
 20
91.0617612868
 10
202.0701152653
 20
91.8847595586
 10
200.5038299873
 20
92.6708631612
  0
LWPOLYLINE
  5
98
330
1F
100
AcDbEntity
  8
0
  6
Continuous
 62
     7
370
    25
100
AcDbPolyline
 90
        5
 70
   128
 43
0.0
 10
81.0416349343
 20
106.3721148509
 10
81.4325840297
 20
105.4207740536
 10
81.8325257771
 20
104.460593685
 10
82.2798442887
 20
103.3779580013
 10
82.7964105622
 20
102.1278409838
  0
LWPOLYLINE
  5
99
330
1F
100
AcDbEntity
  8
0
  6
Continuous
 62
     7
370
    25
100
AcDbPolyline
 90
       29
 70
   128
 43
0.0
 10
77.5953249849
 20
114.7038745501
 10
77.8505366712
 20
114.0876378538
 10
78.1698458112
 20
113.3199949456
 10
78.406158777
 20
112.748837179
 10
78.6354298782
 20
112.1943966425
 10
78.9323148401
 20
111.4714021204
 10
79.0987228465
 20
111.071230851
 10
79.2349296723
 20
110.7453684371
 10
79.3382407336
 20
110.4964641672
 10
79.4810375579
 20
110.1460951234
 10
79.6059806812
 20
109.8410816993
 10
79.7689175927
 20
109.4472569768
 10
80.0522585937
 20
108.7687915376
 10
80.2651552586
 20
108.2556376226
 10
80.3119207528
 20
108.1412037905
 10
80.3681951583
 20
108.0031676553
 10
80.4341918999
 20
107.8413193796
 10
80.5101877408
 20
107.6553868527
 10
80.596407261
 20
107.4451492696
 10
80.788253632
 20
106.9792473791
 10
80.9280712463
 20
106.6434714423
 10
81.0127749789
 20
106.4408547241
 10
81.0342470163
 20
106.3896896296
 10
81.0397070597
 20
106.3766979749
 10
81.041112939
 20
106.3733549327
 10
81.0414844512
 20
106.3724719932
 10
81.0415873234
 20
106.3722276954
 10
81.0416180366
 20
106.3721548413
 10
81.0416349343
 20
106.3721148509
  0
ARC
  5
9A
330
1F
100
AcDbEntity
  8
0
  6
Continuous
 62
     7
370
    25
100
AcDbCircle
 10
77.894743139
 20
114.7093702134
 30
0.0
 40
0.299633147190989
100
AcDbArc
 50
89.4060791655
 51
181.0510418277
  0
LWPOLYLINE
  5
9B
330
1F
100
AcDbEntity
  8
0
  6
Continuous
 62
     7
370
    25
100
AcDbPolyline
 90
       10
 70
   128
 43
0.0
 10
77.8978494561
 20
115.0087989807
 10
77.9691511121
 20
114.9649523052
 10
78.2263646449
 20
114.8410541782
 10
78.6673781468
 20
114.6268539958
 10
79.2063845432
 20
114.3505646695
 10
79.700787175
 20
114.1023879596
 10
80.2608530558
 20
113.8222353044
 10
81.7062893045
 20
113.095538503
 10
83.3893602972
 20
112.2485071147
 10
85.1870791036
 20
111.347318657
  0
ARC
  5
9C
330
1F
100
AcDbEntity
  8
0
  6
Continuous
 62
     7
370
    25
100
AcDbCircle
 10
-93.2849448033
 20
-249.7228974951
 30
0.0
 40
402.7710296940734
100
AcDbArc
 50
62.9717405365
 51
63.6974960013
  0
ARC
  5
9D
330
1F
100
AcDbEntity
  8
0
  6
Continuous
 62
     7
370
    25
100
AcDbCircle
 10
89.8454545455
 20
102.0090909091
 30
0.0
 40
7.049999999999955
100
AcDbArc
 50
90.8062106536
 51
179.034866648
  0
ARC
  5
9E
330
1F
100
AcDbEntity
  8
0
  6
Continuous
 62
     7
370
    25
100
AcDbCircle
 10
157.6801652929
 20
89.9294220252
 30
0.0
 40
0.3757097901317691
100
AcDbArc
 50
217.8205431389
 51
273.1409920681
  0
LINE
  5
9F
330
1F
100
AcDbEntity
  8
0
  6
Continuous
 62
     7
370
    25
100
AcDbLine
 10
157.3833218733
 20
89.6990403398
 30
0.0
 11
157.3833210894
 21
89.8091095017
 31
0.0
  0
LWPOLYLINE
  5
A0
330
1F
100
AcDbEntity
  8
0
  6
Continuous
 62
     7
370
    25
100
AcDbPolyline
 90
       15
 70
   128
 43
0.0
 10
157.38332109
 20
89.8091095017
 10
157.4368113382
 20
89.9361019668
 10
157.5221799211
 20
90.1464421419
 10
157.6417604565
 20
90.4378694674
 10
157.7576661049
 20
90.72411631
 10
157.8791428346
 20
91.0286095154
 10
158.0114511773
 20
91.3590182257
 10
158.1550785539
 20
91.7153424408
 10
158.3105123527
 20
92.0975821609
 10
158.4782385952
 20
92.5057373858
 10
158.6587405155
 20
92.9398081156
 10
159.0053620489
 20
93.794190385
 10
159.4810093471
 20
94.9724193363
 10
159.988591669
 20
96.2150156301
 10
160.5417314883
 20
97.5744310444
  0
LWPOLYLINE
  5
A1
330
1F
100
AcDbEntity
  8
0
  6
Continuous
 62
     7
370
    25
100
AcDbPolyline
 90
        6
 70
   128
 43
0.0
 10
162.2964562279
 20
101.8885226897
 10
161.9160284566
 20
100.9481223063
 10
161.5266791725
 20
99.9956627464
 10
161.1750236945
 20
99.1326418993
 10
160.8820626106
 20
98.4203083567
 10
160.5417314883
 20
97.5744310444
  0
ARC
  5
A2
330
1F
100
AcDbEntity
  8
0
  6
Continuous
 62
     7
370
    25
100
AcDbCircle
 10
169.3454545455
 20
102.0090909091
 30
0.0
 40
7.04999999999995
100
AcDbArc
 50
180.9799106326
 51
269.1464974287
  0
LWPOLYLINE
  5
A3
330
1F
100
AcDbEntity
  8
0
  6
Continuous
 62
     7
370
    25
100
AcDbPolyline
 90
        7
 70
   128
 43
0.0
 10
169.2404393486
 20
94.9599687467
 10
168.5024747511
 20
94.6151797849
 10
167.8160923323
 20
94.296353988
 10
167.1813391469
 20
93.9988705106
 10
166.5982195879
 20
93.7222979425
 10
165.324214708
 20
93.1260728254
 10
164.3516249418
 20
92.6703376425
  0
LWPOLYLINE
  5
A4
330
1F
100
AcDbEntity
  8
0
  6
Continuous
 62
     7
370
    25
100
AcDbPolyline
 90
       10
 70
   128
 43
0.0
 10
157.700751634
 20
89.5542766548
 10
158.1718156434
 20
89.7783509824
 10
158.7275623053
 20
90.0391905325
 10
159.3707894891
 20
90.3393990894
 10
160.1038821118
 20
90.6811961316
 10
160.9290768877
 20
91.066663215
 10
161.8480283683
 20
91.4963798881
 10
162.9164754442
 20
91.9970868197
 10
163.8203468447
 20
92.4225376377
 10
164.3516233545
 20
92.6701189729
  0
ARC
  5
A5
330
1F
100
AcDbEntity
  8
0
  6
Continuous
 62
     7
370
    25
100
AcDbCircle
 10
104.6801652929
 20
89.9294220252
 30
0.0
 40
0.3757097901316265
100
AcDbArc
 50
217.8205431389
 51
273.1409920681
  0
LINE
  5
A6
330
1F
100
AcDbEntity
  8
0
  6
Continuous
 62
     7
370
    25
100
AcDbLine
 10
104.3833218733
 20
89.6990403398
 30
0.0
 11
104.3833210894
 21
89.8091095017
 31
0.0
  0
LWPOLYLINE
  5
A7
330
1F
100
AcDbEntity
  8
0
  6
Continuous
 62
     7
370
    25
100
AcDbPolyline
 90
       15
 70
   128
 43
0.0
 10
104.38332109
 20
89.8091095017
 10
104.4368113383
 20
89.9361019669
 10
104.5221799211
 20
90.1464421419
 10
104.6417604564
 20
90.4378694673
 10
104.7576661049
 20
90.7241163101
 10
104.8791428342
 20
91.0286095145
 10
105.0114511767
 20
91.3590182243
 10
105.1550785532
 20
91.7153424392
 10
105.3105123521
 20
92.0975821595
 10
105.4782385948
 20
92.5057373849
 10
105.6587405155
 20
92.9398081156
 10
106.0053620495
 20
93.7941903861
 10
106.4810093471
 20
94.9724193363
 10
106.98859167
 20
96.2150156327
 10
107.5417314883
 20
97.5744310444
  0
LWPOLYLINE
  5
A8
330
1F
100
AcDbEntity
  8
0
  6
Continuous
 62
     7
370
    25
100
AcDbPolyline
 90
        6
 70
   128
 43
0.0
 10
109.2964562279
 20
101.8885226897
 10
108.9160284571
 20
100.9481223076
 10
108.526679172
 20
99.9956627451
 10
108.175023694
 20
99.1326418983
 10
107.8820626106
 20
98.4203083566
 10
107.5417314883
 20
97.5744310444
  0
ARC
  5
A9
330
1F
100
AcDbEntity
  8
0
  6
Continuous
 62
     7
370
    25
100
AcDbCircle
 10
116.3454545455
 20
102.0090909091
 30
0.0
 40
7.050000000000019
100
AcDbArc
 50
180.9799106326
 51
269.1464974287
  0
LWPOLYLINE
  5
AA
330
1F
100
AcDbEntity
  8
0
  6
Continuous
 62
     7
370
    25
100
AcDbPolyline
 90
        7
 70
   128
 43
0.0
 10
116.2404393486
 20
94.9599687467
 10
115.5024747511
 20
94.6151797849
 10
114.8160923323
 20
94.296353988
 10
114.1813391469
 20
93.9988705106
 10
113.5982195879
 20
93.7222979425
 10
112.324214708
 20
93.1260728254
 10
111.3516249418
 20
92.6703376425
  0
LWPOLYLINE
  5
AB
330
1F
100
AcDbEntity
  8
0
  6
Continuous
 62
     7
370
    25
100
AcDbPolyline
 90
       10
 70
   128
 43
0.0
 10
104.700751634
 20
89.5542766548
 10
105.1718156431
 20
89.7783509823
 10
105.7275623048
 20
90.0391905322
 10
106.3707894886
 20
90.3393990892
 10
107.1038821115
 20
90.6811961314
 10
107.9290768877
 20
91.066663215
 10
108.8480283663
 20
91.4963798871
 10
109.9164754443
 20
91.9970868197
 10
110.8203468439
 20
92.4225376373
 10
111.3516233545
 20
92.6701189729
  0
ARC
  5
AC
330
1F
100
AcDbEntity
  8
0
  6
Continuous
 62
     7
370
    25
100
AcDbCircle
 10
131.1801652929
 20
89.9294220252
 30
0.0
 40
0.3757097901316855
100
AcDbArc
 50
217.8205431389
 51
273.1409920681
  0
LINE
  5
AD
330
1F
100
AcDbEntity
  8
0
  6
Continuous
 62
     7
370
    25
100
AcDbLine
 10
130.8833218733
 20
89.6990403398
 30
0.0
 11
130.8833210894
 21
89.8091095017
 31
0.0
  0
LWPOLYLINE
  5
AE
330
1F
100
AcDbEntity
  8
0
  6
Continuous
 62
     7
370
    25
100
AcDbPolyline
 90
       15
 70
   128
 43
0.0
 10
130.88332109
 20
89.8091095017
 10
130.9368113384
 20
89.9361019671
 10
131.0221799211
 20
90.1464421419
 10
131.1417604566
 20
90.4378694678
 10
131.2576661049
 20
90.72411631
 10
131.3791428344
 20
91.0286095148
 10
131.5114511769
 20
91.3590182248
 10
131.6550785535
 20
91.7153424398
 10
131.8105123523
 20
92.09758216
 10
131.9782385949
 20
92.5057373852
 10
132.1587405155
 20
92.9398081156
 10
132.5053620495
 20
93.7941903862
 10
132.9810093471
 20
94.9724193363
 10
133.4885916699
 20
96.2150156325
 10
134.0417314883
 20
97.5744310444
  0
LWPOLYLINE
  5
AF
330
1F
100
AcDbEntity
  8
0
  6
Continuous
 62
     7
370
    25
100
AcDbPolyline
 90
        6
 70
   128
 43
0.0
 10
135.7964562279
 20
101.8885226897
 10
135.4160284569
 20
100.948122307
 10
135.0266791711
 20
99.9956627428
 10
134.675023694
 20
99.1326418984
 10
134.3820626107
 20
98.4203083566
 10
134.0417314883
 20
97.5744310444
  0
ARC
  5
B0
330
1F
100
AcDbEntity
  8
0
  6
Continuous
 62
     7
370
    25
100
AcDbCircle
 10
142.8454545455
 20
102.0090909091
 30
0.0
 40
7.04999999999998
100
AcDbArc
 50
180.9799106326
 51
269.1464974287
  0
LWPOLYLINE
  5
B1
330
1F
100
AcDbEntity
  8
0
  6
Continuous
 62
     7
370
    25
100
AcDbPolyline
 90
        7
 70
   128
 43
0.0
 10
142.7404393486
 20
94.9599687467
 10
142.0024747511
 20
94.6151797849
 10
141.3160923323
 20
94.296353988
 10
140.6813391468
 20
93.9988705106
 10
140.0982195879
 20
93.7222979425
 10
138.824214708
 20
93.1260728254
 10
137.8516249418
 20
92.6703376425
  0
LWPOLYLINE
  5
B2
330
1F
100
AcDbEntity
  8
0
  6
Continuous
 62
     7
370
    25
100
AcDbPolyline
 90
       10
 70
   128
 43
0.0
 10
131.200751634
 20
89.5542766548
 10
131.6718156435
 20
89.7783509825
 10
132.2275623054
 20
90.0391905325
 10
132.8707894892
 20
90.3393990895
 10
133.6038821119
 20
90.6811961316
 10
134.4290768877
 20
91.066663215
 10
135.3480283659
 20
91.4963798869
 10
136.4164754443
 20
91.9970868197
 10
137.320346843
 20
92.4225376369
 10
137.8516233545
 20
92.6701189729
  0
ARC
  5
B3
330
1F
100
AcDbEntity
  8
0
  6
Continuous
 62
     7
370
    25
100
AcDbCircle
 10
184.1623883574
 20
89.9013401542
 30
0.0
 40
0.3446830314545405
100
AcDbArc
 50
215.9384267524
 51
278.5761336477
  0
LINE
  5
B4
330
1F
100
AcDbEntity
  8
0
  6
Continuous
 62
     7
370
    25
100
AcDbLine
 10
183.8833218733
 20
89.6990403466
 30
0.0
 11
183.8833210894
 21
89.8091095039
 31
0.0
  0
LWPOLYLINE
  5
B5
330
1F
100
AcDbEntity
  8
0
  6
Continuous
 62
     7
370
    25
100
AcDbPolyline
 90
        9
 70
   128
 43
0.0
 10
187.0417314883
 20
97.5744310444
 10
185.9257031044
 20
94.828340858
 10
185.0223996213
 20
92.6132612324
 10
184.6830049535
 20
91.7822981218
 10
184.3818387992
 20
91.039286818
 10
184.1429514975
 20
90.4428624439
 10
183.9884521959
 20
90.0543175408
 10
183.9250761261
 20
89.8992569492
 10
183.88332109
 20
89.8091095039
  0
LWPOLYLINE
  5
B6
330
1F
100
AcDbEntity
  8
0
  6
Continuous
 62
     7
370
    25
100
AcDbPolyline
 90
        6
 70
   128
 43
0.0
 10
188.7964562077
 20
101.888521662
 10
188.4160272665
 20
100.9481190774
 10
188.0266773873
 20
99.9956585913
 10
187.6750216997
 20
99.1326371336
 10
187.3820582083
 20
98.4202973796
 10
187.0417314883
 20
97.5744310444
  0
ARC
  5
B7
330
1F
100
AcDbEntity
  8
0
  6
Continuous
 62
     7
370
    25
100
AcDbCircle
 10
195.8454545455
 20
102.0090909091
 30
0.0
 40
7.049999999999936
100
AcDbArc
 50
180.9799189644
 51
269.1464974287
  0
LWPOLYLINE
  5
B8
330
1F
100
AcDbEntity
  8
0
  6
Continuous
 62
     7
370
    25
100
AcDbPolyline
 90
        7
 70
   128
 43
0.0
 10
195.7404393486
 20
94.9599687467
 10
195.0034410129
 20
94.6159652758
 10
194.3177416029
 20
94.2975080595
 10
193.68338716
 20
94.0000757743
 10
193.1003813025
 20
93.7233130782
 10
191.8272903724
 20
93.1270690423
 10
190.8516249419
 20
92.6703376425
  0
LWPOLYLINE
  5
B9
330
1F
100
AcDbEntity
  8
0
  6
Continuous
 62
     7
370
    25
100
AcDbPolyline
 90
       10
 70
   128
 43
0.0
 10
184.2137505822
 20
89.5603757659
 10
184.7035873987
 20
89.7926436108
 10
185.2712347067
 20
90.0590519097
 10
185.91882874
 20
90.3615887085
 10
186.648226834
 20
90.7019825013
 10
187.4610913363
 20
91.0817803209
 10
188.3558911894
 20
91.4999345109
 10
189.438515221
 20
92.0073433864
 10
190.3288980147
 20
92.4266927558
 10
190.8516233546
 20
92.6701189729
  0
ARC
  5
BA
330
1F
100
AcDbEntity
  8
0
  6
Continuous
 62
     7
370
    25
100
AcDbCircle
 10
154.527552859
 20
89.9032014254
 30
0.0
 40
0.3465097737981772
100
AcDbArc
 50
261.6375800287
 51
323.9002631821
  0
LWPOLYLINE
  5
BB
330
1F
100
AcDbEntity
  8
0
  6
Continuous
 62
     7
370
    25
100
AcDbPolyline
 90
        8
 70
   128
 43
0.0
 10
154.4771204611
 20
89.5608386455
 10
153.5462085821
 20
89.9981288502
 10
152.4489660081
 20
90.5115469174
 10
151.1854081119
 20
91.1026024789
 10
150.252162491
 20
91.5398267655
 10
149.254346618
 20
92.0070883932
 10
148.4760807242
 20
92.3739524765
 10
147.8392841491
 20
92.6703376425
  0
LWPOLYLINE
  5
BC
330
1F
100
AcDbEntity
  8
0
  6
Continuous
 62
     7
370
    25
100
AcDbPolyline
 90
        6
 70
   128
 43
0.0
 10
142.9504706145
 20
94.959767292
 10
143.4866946776
 20
94.7042092253
 10
145.5512309108
 20
93.7424011231
 10
147.1442560266
 20
92.9912931778
 10
147.5974705985
 20
92.7830597212
 10
147.8392857365
 20
92.6701189729
  0
ARC
  5
BD
330
1F
100
AcDbEntity
  8
0
  6
Continuous
 62
     7
370
    25
100
AcDbCircle
 10
142.8454545455
 20
102.0090909091
 30
0.0
 40
7.049999999999958
100
AcDbArc
 50
270.8535025712
 51
359.0200749799
  0
LWPOLYLINE
  5
BE
330
1F
100
AcDbEntity
  8
0
  6
Continuous
 62
     7
370
    25
100
AcDbPolyline
 90
        4
 70
   128
 43
0.0
 10
149.8944537664
 20
101.8885209085
 10
150.5363016461
 20
100.3094545818
 10
151.1238625509
 20
98.8695539848
 10
151.6491776026
 20
97.5744310444
  0
LWPOLYLINE
  5
BF
330
1F
100
AcDbEntity
  8
0
  6
Continuous
 62
     7
370
    25
100
AcDbPolyline
 90
       13
 70
   128
 43
0.0
 10
154.8075880009
 20
89.8091095062
 10
154.6922480314
 20
90.0788456135
 10
154.5855223447
 20
90.3467393147
 10
154.4610853969
 20
90.6591749599
 10
154.2775643743
 20
91.1158845086
 10
154.0754031255
 20
91.6154128203
 10
153.8545508528
 20
92.1577598951
 10
153.614979145
 20
92.7429257328
 10
153.2565434326
 20
93.6152406029
 10
152.9403709956
 20
94.4003840238
 10
152.5305070177
 20
95.4135570304
 10
152.0926340039
 20
96.4855495181
 10
151.6491776026
 20
97.5744310444
  0
LINE
  5
C0
330
1F
100
AcDbEntity
  8
0
  6
Continuous
 62
     7
370
    25
100
AcDbLine
 10
154.8075880015
 20
89.8091095062
 30
0.0
 11
154.8075872176
 21
89.699040336
 31
0.0
  0
ARC
  5
C1
330
1F
100
AcDbEntity
  8
0
  6
Continuous
 62
     7
370
    25
100
AcDbCircle
 10
128.027552859
 20
89.9032014254
 30
0.0
 40
0.3465097738008717
100
AcDbArc
 50
261.6375800289
 51
323.9002631817
  0
LWPOLYLINE
  5
C2
330
1F
100
AcDbEntity
  8
0
  6
Continuous
 62
     7
370
    25
100
AcDbPolyline
 90
        8
 70
   128
 43
0.0
 10
127.9771204611
 20
89.5608386455
 10
127.046208582
 20
89.9981288503
 10
125.948966008
 20
90.5115469174
 10
124.6854081119
 20
91.1026024789
 10
123.7521624911
 20
91.5398267654
 10
122.754346618
 20
92.0070883932
 10
121.9760807246
 20
92.3739524763
 10
121.3392841491
 20
92.6703376425
  0
LWPOLYLINE
  5
C3
330
1F
100
AcDbEntity
  8
0
  6
Continuous
 62
     7
370
    25
100
AcDbPolyline
 90
        6
 70
   128
 43
0.0
 10
116.4504706145
 20
94.959767292
 10
116.9866946784
 20
94.7042092249
 10
119.0512309108
 20
93.7424011231
 10
120.6442560256
 20
92.9912931783
 10
121.0974705978
 20
92.7830597216
 10
121.3392857365
 20
92.6701189729
  0
ARC
  5
C4
330
1F
100
AcDbEntity
  8
0
  6
Continuous
 62
     7
370
    25
100
AcDbCircle
 10
116.3454545455
 20
102.0090909091
 30
0.0
 40
7.050000000000107
100
AcDbArc
 50
270.8535025712
 51
359.0200749799
  0
LWPOLYLINE
  5
C5
330
1F
100
AcDbEntity
  8
0
  6
Continuous
 62
     7
370
    25
100
AcDbPolyline
 90
        4
 70
   128
 43
0.0
 10
123.3944537664
 20
101.8885209085
 10
124.036301647
 20
100.3094545795
 10
124.6238625513
 20
98.869553984
 10
125.1491776026
 20
97.5744310444
  0
LWPOLYLINE
  5
C6
330
1F
100
AcDbEntity
  8
0
  6
Continuous
 62
     7
370
    25
100
AcDbPolyline
 90
       13
 70
   128
 43
0.0
 10
128.3075880009
 20
89.8091095062
 10
128.1922480314
 20
90.0788456135
 10
128.0855223446
 20
90.3467393148
 10
127.9610853969
 20
90.6591749599
 10
127.7775643744
 20
91.1158845084
 10
127.5754031256
 20
91.6154128201
 10
127.3545508529
 20
92.1577598949
 10
127.114979145
 20
92.7429257328
 10
126.7565434323
 20
93.6152406035
 10
126.4403709948
 20
94.4003840257
 10
126.0305070176
 20
95.4135570306
 10
125.5926340038
 20
96.4855495184
 10
125.1491776026
 20
97.5744310444
  0
LINE
  5
C7
330
1F
100
AcDbEntity
  8
0
  6
Continuous
 62
     7
370
    25
100
AcDbLine
 10
128.3075880015
 20
89.8091095062
 30
0.0
 11
128.3075872176
 21
89.699040336
 31
0.0
  0
ARC
  5
C8
330
1F
100
AcDbEntity
  8
0
  6
Continuous
 62
     7
370
    25
100
AcDbCircle
 10
101.527552859
 20
89.9032014254
 30
0.0
 40
0.3465097737942763
100
AcDbArc
 50
261.6375800283
 51
323.9002631825
  0
LWPOLYLINE
  5
C9
330
1F
100
AcDbEntity
  8
0
  6
Continuous
 62
     7
370
    25
100
AcDbPolyline
 90
        8
 70
   128
 43
0.0
 10
101.4771204611
 20
89.5608386455
 10
100.546208582
 20
89.9981288503
 10
99.448966008
 20
90.5115469174
 10
98.1854081118
 20
91.1026024789
 10
97.2521624907
 20
91.5398267656
 10
96.2543466179
 20
92.0070883932
 10
95.4760807242
 20
92.3739524765
 10
94.8392841491
 20
92.6703376425
  0
LWPOLYLINE
  5
CA
330
1F
100
AcDbEntity
  8
0
  6
Continuous
 62
     7
370
    25
100
AcDbPolyline
 90
        6
 70
   128
 43
0.0
 10
89.9504706145
 20
94.959767292
 10
90.4866946781
 20
94.704209225
 10
92.5512309108
 20
93.7424011231
 10
94.1442560261
 20
92.9912931781
 10
94.5974705981
 20
92.7830597214
 10
94.8392857365
 20
92.6701189729
  0
ARC
  5
CB
330
1F
100
AcDbEntity
  8
0
  6
Continuous
 62
     7
370
    25
100
AcDbCircle
 10
89.8454545455
 20
102.0090909091
 30
0.0
 40
7.050000000000042
100
AcDbArc
 50
270.8535025712
 51
359.0200749799
  0
LWPOLYLINE
  5
CC
330
1F
100
AcDbEntity
  8
0
  6
Continuous
 62
     7
370
    25
100
AcDbPolyline
 90
        4
 70
   128
 43
0.0
 10
96.8944537664
 20
101.8885209085
 10
97.5363016464
 20
100.3094545809
 10
98.1238625511
 20
98.8695539846
 10
98.6491776026
 20
97.5744310444
  0
LWPOLYLINE
  5
CD
330
1F
100
AcDbEntity
  8
0
  6
Continuous
 62
     7
370
    25
100
AcDbPolyline
 90
       13
 70
   128
 43
0.0
 10
101.8075880009
 20
89.8091095062
 10
101.6922480314
 20
90.0788456134
 10
101.5855223448
 20
90.3467393144
 10
101.4610853969
 20
90.6591749599
 10
101.2775643744
 20
91.1158845084
 10
101.0754031256
 20
91.61541282
 10
100.8545508529
 20
92.1577598947
 10
100.6149791451
 20
92.7429257325
 10
100.2565434324
 20
93.6152406033
 10
99.9403709946
 20
94.4003840262
 10
99.5305070174
 20
95.4135570312
 10
99.0926340034
 20
96.4855495194
 10
98.6491776026
 20
97.5744310444
  0
LINE
  5
CE
330
1F
100
AcDbEntity
  8
0
  6
Continuous
 62
     7
370
    25
100
AcDbLine
 10
101.8075880015
 20
89.8091095062
 30
0.0
 11
101.8075872176
 21
89.699040336
 31
0.0
  0
ARC
  5
CF
330
1F
100
AcDbEntity
  8
0
  6
Continuous
 62
     7
370
    25
100
AcDbCircle
 10
181.0163584424
 20
89.9183641687
 30
0.0
 40
0.3645822095890212
100
AcDbArc
 50
265.8679713555
 51
323.017157932
  0
LWPOLYLINE
  5
D0
330
1F
100
AcDbEntity
  8
0
  6
Continuous
 62
     7
370
    25
100
AcDbPolyline
 90
        8
 70
   128
 43
0.0
 10
180.9900965141
 20
89.5547261097
 10
180.0591621283
 20
89.992027081
 10
178.9610456399
 20
90.5058292381
 10
177.6957628033
 20
91.0976797129
 10
176.7573411442
 20
91.5373959298
 10
175.756391152
 20
92.0061316246
 10
174.9764922531
 20
92.3737393078
 10
174.3392841491
 20
92.6703376425
  0
ARC
  5
D1
330
1F
100
AcDbEntity
  8
0
  6
Continuous
 62
     7
370
    25
100
AcDbCircle
 10
316.5050540659
 20
402.5839400116
 30
0.0
 40
340.9658078979128
100
AcDbArc
 50
244.4506495986
 51
245.357808752
  0
ARC
  5
D2
330
1F
100
AcDbEntity
  8
0
  6
Continuous
 62
     7
370
    25
100
AcDbCircle
 10
169.3454545455
 20
102.0090909091
 30
0.0
 40
7.050000000000124
100
AcDbArc
 50
270.8535025713
 51
359.0200863916
  0
LWPOLYLINE
  5
D3
330
1F
100
AcDbEntity
  8
0
  6
Continuous
 62
     7
370
    25
100
AcDbPolyline
 90
        5
 70
   128
 43
0.0
 10
178.1491776026
 20
97.5744310444
 10
177.7642840835
 20
98.5279824383
 10
177.3336976653
 20
99.5791581202
 10
176.8738478998
 20
100.7064930525
 10
176.3944538221
 20
101.8885223209
  0
LWPOLYLINE
  5
D4
330
1F
100
AcDbEntity
  8
0
  6
Continuous
 62
     7
370
    25
100
AcDbPolyline
 90
       12
 70
   128
 43
0.0
 10
181.3075880009
 20
89.8091095063
 10
181.1921287736
 20
90.0791404024
 10
181.0853482162
 20
90.3471641219
 10
180.9608485962
 20
90.6597465576
 10
180.712000038
 20
91.2782401915
 10
180.4299496467
 20
91.9729485669
 10
180.1145921674
 20
92.7438716837
 10
179.756208371
 20
93.616063695
 10
179.4400435181
 20
94.4011977978
 10
179.030201892
 20
95.4143075751
 10
178.5924386271
 20
96.4860187823
 10
178.1491776026
 20
97.5744310444
  0
LINE
  5
D5
330
1F
100
AcDbEntity
  8
0
  6
Continuous
 62
     7
370
    25
100
AcDbLine
 10
181.3075880015
 20
89.8091095063
 30
0.0
 11
181.3075872176
 21
89.699040327
 31
0.0
  0
ARC
  5
D6
330
1F
100
AcDbEntity
  8
0
  6
Continuous
 62
     7
370
    25
100
AcDbCircle
 10
101.5350342748
 20
114.1324233133
 30
0.0
 40
0.3303270092419079
100
AcDbArc
 50
34.4193385263
 51
100.0741053802
  0
LINE
  5
D7
330
1F
100
AcDbEntity
  8
0
  6
Continuous
 62
     7
370
    25
100
AcDbLine
 10
101.8075855589
 20
114.3191392361
 30
0.0
 11
101.80758763
 21
114.2090769591
 31
0.0
  0
LWPOLYLINE
  5
D8
330
1F
100
AcDbEntity
  8
0
  6
Continuous
 62
     7
370
    25
100
AcDbPolyline
 90
       10
 70
   128
 43
0.0
 10
98.6491776026
 20
106.4437505318
 10
98.8368278785
 20
106.9174316621
 10
99.0747509513
 20
107.499737135
 10
99.4171614034
 20
108.334420368
 10
99.82261803
 20
109.3222434065
 10
100.214980127
 20
110.2863735153
 10
100.6927292799
 20
111.4688500588
 10
101.1055365737
 20
112.4862068558
 10
101.4493386996
 20
113.3221063891
 10
101.8075876296
 20
114.2090769591
  0
ARC
  5
D9
330
1F
100
AcDbEntity
  8
0
  6
Continuous
 62
     7
370
    25
100
AcDbCircle
 10
287.8932610543
 20
26.9563436268
 30
0.0
 40
205.2597646348054
100
AcDbArc
 50
157.2163353009
 51
158.5163960123
  0
ARC
  5
DA
330
1F
100
AcDbEntity
  8
0
  6
Continuous
 62
     7
370
    25
100
AcDbCircle
 10
89.8454545455
 20
102.0090909091
 30
0.0
 40
7.050000000000027
100
AcDbArc
 50
0.9797976451
 51
89.1455986706
  0
LWPOLYLINE
  5
DB
330
1F
100
AcDbEntity
  8
0
  6
Continuous
 62
     7
370
    25
100
AcDbPolyline
 90
        7
 70
   128
 43
0.0
 10
94.8392857365
 20
111.3480628452
 10
94.0863863971
 20
110.9987625408
 10
92.541015225
 20
110.2709041972
 10
91.4406321907
 20
109.7552597351
 10
90.4442312277
 20
109.2932667908
 10
90.1330118215
 20
109.1460148661
 10
89.9505815866
 20
109.0584409125
  0
LWPOLYLINE
  5
DC
330
1F
100
AcDbEntity
  8
0
  6
Continuous
 62
     7
370
    25
100
AcDbPolyline
 90
       12
 70
   128
 43
0.0
 10
101.4772528911
 20
114.4576574516
 10
101.0593395994
 20
114.2597377321
 10
100.594790499
 20
114.0411644224
 10
100.0828752512
 20
113.8012578463
 10
99.5229648845
 20
113.5394326635
 10
98.9143699764
 20
113.2550472756
 10
98.2566300989
 20
112.9476731944
 10
97.6464382363
 20
112.6634790854
 10
96.8139807849
 20
112.2750242765
 10
95.9077671661
 20
111.8487270495
 10
95.26248903
 20
111.5446848162
 10
94.8392857365
 20
111.3480628452
  0
ARC
  5
DD
330
1F
100
AcDbEntity
  8
0
  6
Continuous
 62
     7
370
    25
100
AcDbCircle
 10
128.0350342748
 20
114.1324233133
 30
0.0
 40
0.3303270092375193
100
AcDbArc
 50
34.4193385257
 51
100.0741053806
  0
LINE
  5
DE
330
1F
100
AcDbEntity
  8
0
  6
Continuous
 62
     7
370
    25
100
AcDbLine
 10
128.3075855589
 20
114.3191392361
 30
0.0
 11
128.30758763
 21
114.2090769591
 31
0.0
  0
LWPOLYLINE
  5
DF
330
1F
100
AcDbEntity
  8
0
  6
Continuous
 62
     7
370
    25
100
AcDbPolyline
 90
       10
 70
   128
 43
0.0
 10
125.1491776026
 20
106.4437505318
 10
125.3368278789
 20
106.9174316632
 10
125.5747509516
 20
107.4997371358
 10
125.9171614041
 20
108.3344203695
 10
126.3226180309
 20
109.3222434087
 10
126.714980127
 20
110.2863735153
 10
127.1927292803
 20
111.46885006
 10
127.6055365737
 20
112.4862068558
 10
127.9493386996
 20
113.322106389
 10
128.3075876296
 20
114.2090769591
  0
ARC
  5
E0
330
1F
100
AcDbEntity
  8
0
  6
Continuous
 62
     7
370
    25
100
AcDbCircle
 10
314.3932593745
 20
26.95634431
 30
0.0
 40
205.259762821539
100
AcDbArc
 50
157.2163352951
 51
158.516396018
  0
ARC
  5
E1
330
1F
100
AcDbEntity
  8
0
  6
Continuous
 62
     7
370
    25
100
AcDbCircle
 10
116.3454545455
 20
102.0090909091
 30
0.0
 40
7.050000000000036
100
AcDbArc
 50
0.9797976451
 51
89.1455986705
  0
LWPOLYLINE
  5
E2
330
1F
100
AcDbEntity
  8
0
  6
Continuous
 62
     7
370
    25
100
AcDbPolyline
 90
        7
 70
   128
 43
0.0
 10
121.3392857365
 20
111.3480628452
 10
120.5863863953
 20
110.9987625399
 10
119.041015225
 20
110.2709041972
 10
117.9406321907
 20
109.7552597351
 10
116.9442312277
 20
109.2932667908
 10
116.6330118215
 20
109.1460148661
 10
116.4505815866
 20
109.0584409125
  0
LWPOLYLINE
  5
E3
330
1F
100
AcDbEntity
  8
0
  6
Continuous
 62
     7
370
    25
100
AcDbPolyline
 90
       12
 70
   128
 43
0.0
 10
127.9772528911
 20
114.4576574516
 10
127.5593395995
 20
114.2597377322
 10
127.0947904993
 20
114.0411644225
 10
126.5828752515
 20
113.8012578464
 10
126.0229648849
 20
113.5394326636
 10
125.4143699767
 20
113.2550472758
 10
124.7566300991
 20
112.9476731945
 10
124.1464382363
 20
112.6634790854
 10
123.313980785
 20
112.2750242766
 10
122.4077671663
 20
111.8487270496
 10
121.7624890301
 20
111.5446848163
 10
121.3392857365
 20
111.3480628452
  0
ARC
  5
E4
330
1F
100
AcDbEntity
  8
0
  6
Continuous
 62
     7
370
    25
100
AcDbCircle
 10
154.5350342748
 20
114.1324233133
 30
0.0
 40
0.3303270092546772
100
AcDbArc
 50
34.4193385276
 51
100.0741053787
  0
LINE
  5
E5
330
1F
100
AcDbEntity
  8
0
  6
Continuous
 62
     7
370
    25
100
AcDbLine
 10
154.8075855589
 20
114.3191392361
 30
0.0
 11
154.80758763
 21
114.2090769591
 31
0.0
  0
LWPOLYLINE
  5
E6
330
1F
100
AcDbEntity
  8
0
  6
Continuous
 62
     7
370
    25
100
AcDbPolyline
 90
       10
 70
   128
 43
0.0
 10
151.6491776026
 20
106.4437505318
 10
151.8368278786
 20
106.9174316623
 10
152.0747509513
 20
107.4997371351
 10
152.4171614038
 20
108.3344203688
 10
152.8226180305
 20
109.3222434079
 10
153.214980127
 20
110.2863735153
 10
153.6927292803
 20
111.46885006
 10
154.1055365737
 20
112.4862068558
 10
154.4493386996
 20
113.3221063891
 10
154.8075876296
 20
114.2090769591
  0
ARC
  5
E7
330
1F
100
AcDbEntity
  8
0
  6
Continuous
 62
     7
370
    25
100
AcDbCircle
 10
340.8932609404
 20
26.9563436731
 30
0.0
 40
205.2597645118602
100
AcDbArc
 50
157.2163353005
 51
158.5163960126
  0
ARC
  5
E8
330
1F
100
AcDbEntity
  8
0
  6
Continuous
 62
     7
370
    25
100
AcDbCircle
 10
142.8454545455
 20
102.0090909091
 30
0.0
 40
7.049999999999993
100
AcDbArc
 50
0.9797976451
 51
89.1455986705
  0
LWPOLYLINE
  5
E9
330
1F
100
AcDbEntity
  8
0
  6
Continuous
 62
     7
370
    25
100
AcDbPolyline
 90
        7
 70
   128
 43
0.0
 10
147.8392857365
 20
111.3480628452
 10
147.0863863966
 20
110.9987625405
 10
145.541015225
 20
110.2709041972
 10
144.4406321907
 20
109.7552597351
 10
143.4442312282
 20
109.293266791
 10
143.1330118219
 20
109.1460148663
 10
142.9505815866
 20
109.0584409125
  0
LWPOLYLINE
  5
EA
330
1F
100
AcDbEntity
  8
0
  6
Continuous
 62
     7
370
    25
100
AcDbPolyline
 90
       12
 70
   128
 43
0.0
 10
154.4772528911
 20
114.4576574516
 10
154.0593395992
 20
114.259737732
 10
153.5947904988
 20
114.0411644223
 10
153.082875251
 20
113.8012578462
 10
152.5229648844
 20
113.5394326634
 10
151.9143699764
 20
113.2550472756
 10
151.2566300991
 20
112.9476731944
 10
150.6464382349
 20
112.6634790848
 10
149.8139807841
 20
112.2750242761
 10
148.9077671661
 20
111.8487270495
 10
148.2624890298
 20
111.5446848161
 10
147.8392857365
 20
111.3480628452
  0
ARC
  5
EB
330
1F
100
AcDbEntity
  8
0
  6
Continuous
 62
     7
370
    25
100
AcDbCircle
 10
184.1509725443
 20
114.1438104065
 30
0.0
 40
0.3199676452297437
100
AcDbArc
 50
78.6965211388
 51
146.7729585273
  0
LWPOLYLINE
  5
EC
330
1F
100
AcDbEntity
  8
0
  6
Continuous
 62
     7
370
    25
100
AcDbPolyline
 90
        9
 70
   128
 43
0.0
 10
184.2136880178
 20
114.4572445278
 10
184.893766489
 20
114.1377749932
 10
185.6617569042
 20
113.7777313408
 10
186.51765643
 20
113.3768353488
 10
187.4614646344
 20
112.9350445728
 10
188.365174783
 20
112.5127278647
 10
189.372641779
 20
112.0417316365
 10
190.1752289401
 20
111.6626502703
 10
190.8516249419
 20
111.3478441757
  0
ARC
  5
ED
330
1F
100
AcDbEntity
  8
0
  6
Continuous
 62
     7
370
    25
100
AcDbCircle
 10
230.6237839754
 20
189.9043867791
 30
0.0
 40
88.05086609445071
100
AcDbArc
 50
243.1474976706
 51
246.6607922516
  0
ARC
  5
EE
330
1F
100
AcDbEntity
  8
0
  6
Continuous
 62
     7
370
    25
100
AcDbCircle
 10
195.8454545455
 20
102.0090909091
 30
0.0
 40
7.050000000000035
100
AcDbArc
 50
90.8544013302
 51
179.0202043133
  0
ARC
  5
EF
330
1F
100
AcDbEntity
  8
0
  6
Continuous
 62
     7
370
    25
100
AcDbCircle
 10
-49.2193565547
 20
7.8325558038
 30
0.0
 40
256.0145883518356
100
AcDbArc
 50
21.6124769104
 51
22.6547930102
  0
LWPOLYLINE
  5
F0
330
1F
100
AcDbEntity
  8
0
  6
Continuous
 62
     7
370
    25
100
AcDbPolyline
 90
       11
 70
   128
 43
0.0
 10
187.0417314883
 20
106.4437505319
 10
186.8375951329
 20
106.9544859603
 10
186.6462927371
 20
107.4201333694
 10
186.3957070198
 20
108.0350585045
 10
186.1081557734
 20
108.7390364383
 10
185.8260052804
 20
109.4272719278
 10
185.5507559518
 20
110.0997649729
 10
185.0249278955
 20
111.3998115324
 10
184.6038852758
 20
112.4426814967
 10
184.2155382185
 20
113.3874982235
 10
183.8833214614
 20
114.2090769642
  0
LINE
  5
F1
330
1F
100
AcDbEntity
  8
0
  6
Continuous
 62
     7
370
    25
100
AcDbLine
 10
183.8833214609
 20
114.2090769642
 30
0.0
 11
183.883323532
 21
114.3191392588
 31
0.0
  0
ARC
  5
F2
330
1F
100
AcDbEntity
  8
0
  6
Continuous
 62
     7
370
    25
100
AcDbCircle
 10
181.0281735329
 20
114.1163509284
 30
0.0
 40
0.3452501767480203
100
AcDbArc
 50
35.9703276295
 51
98.5231795693
  0
LINE
  5
F3
330
1F
100
AcDbEntity
  8
0
  6
Continuous
 62
     7
370
    25
100
AcDbLine
 10
181.3075855588
 20
114.3191392069
 30
0.0
 11
181.30758763
 21
114.2090769574
 31
0.0
  0
LWPOLYLINE
  5
F4
330
1F
100
AcDbEntity
  8
0
  6
Continuous
 62
     7
370
    25
100
AcDbPolyline
 90
       11
 70
   128
 43
0.0
 10
178.1491776026
 20
106.4437505319
 10
178.3466427876
 20
106.9334814207
 10
178.5479349373
 20
107.4256743666
 10
178.7618296106
 20
107.9502472362
 10
179.0948409676
 20
108.767388636
 10
179.4174884957
 20
109.5561148924
 10
179.7280177572
 20
110.3164260054
 10
180.2573456549
 20
111.6255062222
 10
180.6400983191
 20
112.5725138249
 10
180.9843765597
 20
113.4104932129
 10
181.3075876295
 20
114.2090769574
  0
ARC
  5
F5
330
1F
100
AcDbEntity
  8
0
  6
Continuous
 62
     7
370
    25
100
AcDbCircle
 10
624.0729083041
 20
-77.4459773647
 30
0.0
 40
482.3519520314927
100
AcDbArc
 50
157.5897614374
 51
158.142978631
  0
ARC
  5
F6
330
1F
100
AcDbEntity
  8
0
  6
Continuous
 62
     7
370
    25
100
AcDbCircle
 10
169.3454545455
 20
102.0090909091
 30
0.0
 40
7.049999999999993
100
AcDbArc
 50
0.9798062635
 51
89.1455986705
  0
LWPOLYLINE
  5
F7
330
1F
100
AcDbEntity
  8
0
  6
Continuous
 62
     7
370
    25
100
AcDbPolyline
 90
        7
 70
   128
 43
0.0
 10
174.3392857364
 20
111.3480628452
 10
173.5284909231
 20
110.9712353147
 10
172.0135219054
 20
110.2581226434
 10
170.9127872012
 20
109.7428002871
 10
169.9322141414
 20
109.2875699246
 10
169.6275207571
 20
109.1433379212
 10
169.4505815866
 20
109.0584409125
  0
LWPOLYLINE
  5
F8
330
1F
100
AcDbEntity
  8
0
  6
Continuous
 62
     7
370
    25
100
AcDbPolyline
 90
        9
 70
   128
 43
0.0
 10
180.9770496405
 20
114.4579824473
 10
180.3972642533
 20
114.1846065962
 10
179.5706303665
 20
113.798977175
 10
178.684364103
 20
113.383968344
 10
177.7481973511
 20
112.9455238123
 10
176.8066297002
 20
112.5049207838
 10
175.7454909103
 20
112.0074099932
 10
174.8495398387
 20
111.5857064838
 10
174.3392857364
 20
111.3480628452
  0
ARC
  5
F9
330
1F
100
AcDbEntity
  8
0
  6
Continuous
 62
     7
370
    25
100
AcDbCircle
 10
104.6518754842
 20
114.1422451212
 30
0.0
 40
0.3215821173258417
100
AcDbArc
 50
78.8786084155
 51
146.6278775664
  0
LWPOLYLINE
  5
FA
330
1F
100
AcDbEntity
  8
0
  6
Continuous
 62
     7
370
    25
100
AcDbPolyline
 90
        8
 70
   128
 43
0.0
 10
104.7139048132
 20
114.4574607725
 10
105.6408031017
 20
114.0217897827
 10
106.737884014
 20
113.508770609
 10
108.0051257356
 20
112.9162610319
 10
108.954824176
 20
112.470860289
 10
109.951531095
 20
112.0038521379
 10
110.7255607681
 20
111.639297395
 10
111.3516249418
 20
111.3478441757
  0
ARC
  5
FB
330
1F
100
AcDbEntity
  8
0
  6
Continuous
 62
     7
370
    25
100
AcDbCircle
 10
-6.2146942308
 20
-146.040562344
 30
0.0
 40
282.9675444543901
100
AcDbArc
 50
64.3576072661
 51
65.4506826576
  0
ARC
  5
FC
330
1F
100
AcDbEntity
  8
0
  6
Continuous
 62
     7
370
    25
100
AcDbCircle
 10
116.3454545455
 20
102.0090909091
 30
0.0
 40
7.05000000000009
100
AcDbArc
 50
90.8544013295
 51
179.0202041726
  0
ARC
  5
FD
330
1F
100
AcDbEntity
  8
0
  6
Continuous
 62
     7
370
    25
100
AcDbCircle
 10
80.5155159395
 20
92.9371463365
 30
0.0
 40
30.21331964183223
100
AcDbArc
 50
17.7132391619
 51
26.5540200063
  0
LWPOLYLINE
  5
FE
330
1F
100
AcDbEntity
  8
0
  6
Continuous
 62
     7
370
    25
100
AcDbPolyline
 90
       13
 70
   128
 43
0.0
 10
107.5417314883
 20
106.4437505319
 10
107.4454803816
 20
106.6888975093
 10
107.3145204124
 20
107.0108419961
 10
107.1507002708
 20
107.409583992
 10
106.9564142722
 20
107.8851234972
 10
106.7145100265
 20
108.4790819014
 10
106.4760557447
 20
109.0617254196
 10
106.2419091613
 20
109.6330540519
 10
106.012960544
 20
110.1930677981
 10
105.4931811555
 20
111.4774819703
 10
105.0722045498
 20
112.5190971504
 10
104.6967293545
 20
113.4361941926
 10
104.3833214614
 20
114.2090769559
  0
LINE
  5
FF
330
1F
100
AcDbEntity
  8
0
  6
Continuous
 62
     7
370
    25
100
AcDbLine
 10
104.3833214609
 20
114.2090769559
 30
0.0
 11
104.3833235321
 21
114.3191392301
 31
0.0
  0
ARC
  5
100
330
1F
100
AcDbEntity
  8
0
  6
Continuous
 62
     7
370
    25
100
AcDbCircle
 10
157.6518754842
 20
114.1422451212
 30
0.0
 40
0.3215821173385724
100
AcDbArc
 50
78.878608417
 51
146.6278775648
  0
LWPOLYLINE
  5
101
330
1F
100
AcDbEntity
  8
0
  6
Continuous
 62
     7
370
    25
100
AcDbPolyline
 90
        8
 70
   128
 43
0.0
 10
157.7139048132
 20
114.4574607725
 10
158.6408031019
 20
114.0217897826
 10
159.7378840142
 20
113.5087706089
 10
161.0051257356
 20
112.9162610319
 10
161.9548241766
 20
112.4708602887
 10
162.951531095
 20
112.0038521379
 10
163.7255607682
 20
111.6392973949
 10
164.3516249418
 20
111.3478441757
  0
ARC
  5
102
330
1F
100
AcDbEntity
  8
0
  6
Continuous
 62
     7
370
    25
100
AcDbCircle
 10
46.7853103989
 20
-146.0405524587
 30
0.0
 40
282.9675335391408
100
AcDbArc
 50
64.3576072451
 51
65.4506826787
  0
ARC
  5
103
330
1F
100
AcDbEntity
  8
0
  6
Continuous
 62
     7
370
    25
100
AcDbCircle
 10
169.3454545455
 20
102.0090909091
 30
0.0
 40
7.05000000000006
100
AcDbArc
 50
90.8544013295
 51
179.0202041726
  0
ARC
  5
104
330
1F
100
AcDbEntity
  8
0
  6
Continuous
 62
     7
370
    25
100
AcDbCircle
 10
133.5155136955
 20
92.9371454238
 30
0.0
 40
30.21332205715036
100
AcDbArc
 50
17.713239516
 51
26.5540196522
  0
LWPOLYLINE
  5
105
330
1F
100
AcDbEntity
  8
0
  6
Continuous
 62
     7
370
    25
100
AcDbPolyline
 90
       13
 70
   128
 43
0.0
 10
160.5417314883
 20
106.4437505319
 10
160.4454803812
 20
106.6888975103
 10
160.314520412
 20
107.0108419973
 10
160.1507002705
 20
107.4095839929
 10
159.9564142722
 20
107.8851234972
 10
159.7145100261
 20
108.4790819023
 10
159.4760557442
 20
109.0617254208
 10
159.2419091609
 20
109.6330540528
 10
159.012960544
 20
110.1930677981
 10
158.4931811557
 20
111.4774819697
 10
158.0722045498
 20
112.5190971504
 10
157.6967293547
 20
113.4361941922
 10
157.3833214614
 20
114.2090769559
  0
LINE
  5
106
330
1F
100
AcDbEntity
  8
0
  6
Continuous
 62
     7
370
    25
100
AcDbLine
 10
157.3833214609
 20
114.2090769559
 30
0.0
 11
157.3833235321
 21
114.3191392301
 31
0.0
  0
ARC
  5
107
330
1F
100
AcDbEntity
  8
0
  6
Continuous
 62
     7
370
    25
100
AcDbCircle
 10
131.1518754842
 20
114.1422451212
 30
0.0
 40
0.3215821173288166
100
AcDbArc
 50
78.8786084159
 51
146.627877566
  0
LWPOLYLINE
  5
108
330
1F
100
AcDbEntity
  8
0
  6
Continuous
 62
     7
370
    25
100
AcDbPolyline
 90
        8
 70
   128
 43
0.0
 10
131.2139048132
 20
114.4574607725
 10
132.1408031017
 20
114.0217897827
 10
133.237884014
 20
113.508770609
 10
134.5051257356
 20
112.9162610319
 10
135.4548241759
 20
112.470860289
 10
136.451531095
 20
112.0038521379
 10
137.225560768
 20
111.639297395
 10
137.8516249418
 20
111.3478441757
  0
ARC
  5
109
330
1F
100
AcDbEntity
  8
0
  6
Continuous
 62
     7
370
    25
100
AcDbCircle
 10
20.2853077333
 20
-146.0405581502
 30
0.0
 40
282.967539823627
100
AcDbArc
 50
64.3576072572
 51
65.4506826665
  0
ARC
  5
10A
330
1F
100
AcDbEntity
  8
0
  6
Continuous
 62
     7
370
    25
100
AcDbCircle
 10
142.8454545455
 20
102.0090909091
 30
0.0
 40
7.050000000000064
100
AcDbArc
 50
90.8544013295
 51
179.0202041726
  0
ARC
  5
10B
330
1F
100
AcDbEntity
  8
0
  6
Continuous
 62
     7
370
    25
100
AcDbCircle
 10
107.0155161603
 20
92.9371464264
 30
0.0
 40
30.2133194041499
100
AcDbArc
 50
17.7132391271
 51
26.5540200411
  0
LWPOLYLINE
  5
10C
330
1F
100
AcDbEntity
  8
0
  6
Continuous
 62
     7
370
    25
100
AcDbPolyline
 90
       13
 70
   128
 43
0.0
 10
134.0417314883
 20
106.4437505319
 10
133.9454803813
 20
106.68889751
 10
133.8145204121
 20
107.0108419969
 10
133.6507002706
 20
107.4095839926
 10
133.4564142722
 20
107.8851234972
 10
133.2145100264
 20
108.4790819015
 10
132.9760557446
 20
109.0617254198
 10
132.7419091612
 20
109.633054052
 10
132.512960544
 20
110.1930677981
 10
131.9931811558
 20
111.4774819695
 10
131.5722045498
 20
112.5190971504
 10
131.1967293547
 20
113.4361941924
 10
130.8833214614
 20
114.2090769559
  0
LINE
  5
10D
330
1F
100
AcDbEntity
  8
0
  6
Continuous
 62
     7
370
    25
100
AcDbLine
 10
130.8833214609
 20
114.2090769559
 30
0.0
 11
130.8833235321
 21
114.3191392301
 31
0.0
  0
LINE
  5
10E
330
1F
100
AcDbEntity
  8
0
  6
Continuous
 62
     7
370
    25
100
AcDbLine
 10
184.2136880216
 20
114.4575715623
 30
0.0
 11
184.1667401519
 21
114.6173889069
 31
0.0
  0
LINE
  5
10F
330
1F
100
AcDbEntity
  8
0
  6
Continuous
 62
     7
370
    25
100
AcDbLine
 10
207.7930626802
 20
115.0090981705
 30
0.0
 11
184.1667401508
 21
114.6173928929
 31
0.0
  0
LINE
  5
110
330
1F
100
AcDbEntity
  8
0
  6
Continuous
 62
     7
370
    25
100
AcDbLine
 10
195.9445209678
 20
109.0583948353
 30
0.0
 11
195.7403280215
 21
109.0583070651
 31
0.0
  0
LINE
  5
111
330
1F
100
AcDbEntity
  8
0
  6
Continuous
 62
     7
370
    25
100
AcDbLine
 10
184.1667759082
 20
89.4008349314
 30
0.0
 11
184.2137886862
 21
89.5605111673
 31
0.0
  0
LINE
  5
112
330
1F
100
AcDbEntity
  8
0
  6
Continuous
 62
     7
370
    25
100
AcDbLine
 10
195.7404385977
 20
94.9598731049
 30
0.0
 11
195.9444826488
 21
94.9597864445
 31
0.0
  0
LINE
  5
113
330
1F
100
AcDbEntity
  8
0
  6
Continuous
 62
     7
370
    25
100
AcDbLine
 10
207.7930646859
 20
89.0090841439
 30
0.0
 11
184.1667759071
 21
89.4008312343
 31
0.0
  0
LINE
  5
114
330
1F
100
AcDbEntity
  8
0
  6
Continuous
 62
     7
370
    25
100
AcDbLine
 10
89.8454557001
 20
89.1937571449
 30
0.0
 11
101.5241343483
 21
89.4008300915
 31
0.0
  0
LINE
  5
115
330
1F
100
AcDbEntity
  8
0
  6
Continuous
 62
     7
370
    25
100
AcDbLine
 10
77.8978462709
 20
89.0090843311
 30
0.0
 11
89.8454557001
 21
89.1937571449
 31
0.0
  0
LINE
  5
116
330
1F
100
AcDbEntity
  8
0
  6
Continuous
 62
     7
370
    25
100
AcDbLine
 10
89.7464264382
 20
94.9597864445
 30
0.0
 11
89.9504704932
 21
94.9598731049
 31
0.0
  0
LWPOLYLINE
  5
117
330
1F
100
AcDbEntity
  8
0
  6
Continuous
 62
     7
370
    25
100
AcDbPolyline
 90
        3
 70
   128
 43
0.0
 10
101.524134365
 20
89.4008869002
 10
101.4826428495
 20
89.4754959935
 10
101.4771204611
 20
89.5608386455
  0
LINE
  5
118
330
1F
100
AcDbEntity
  8
0
  6
Continuous
 62
     7
370
    25
100
AcDbLine
 10
89.9505810693
 20
109.0583070651
 30
0.0
 11
89.8454545455
 21
109.0590909091
 31
0.0
  0
LINE
  5
119
330
1F
100
AcDbEntity
  8
0
  6
Continuous
 62
     7
370
    25
100
AcDbLine
 10
89.8454545455
 20
109.0590909091
 30
0.0
 11
89.7462570548
 21
109.0583929921
 31
0.0
  0
LINE
  5
11A
330
1F
100
AcDbEntity
  8
0
  6
Continuous
 62
     7
370
    25
100
AcDbLine
 10
89.8457458434
 20
114.8264826524
 30
0.0
 11
77.8978490428
 21
115.0090973429
 31
0.0
  0
LWPOLYLINE
  5
11B
330
1F
100
AcDbEntity
  8
0
  6
Continuous
 62
     7
370
    25
100
AcDbPolyline
 90
       12
 70
   128
 43
0.0
 10
101.523748054
 20
114.6167753637
 10
95.6847470907
 20
114.7248741607
 10
91.3076852092
 20
114.8016960723
 10
90.2123252118
 20
114.8203176583
 10
89.937937949
 20
114.8249399306
 10
89.8690675015
 20
114.8260951521
 10
89.8517130738
 20
114.8263847995
 10
89.8473060589
 20
114.826457696
 10
89.8461701012
 20
114.8264761664
 10
89.8458690098
 20
114.8264809074
 10
89.8457599545
 20
114.826482497
 10
89.8457458434
 20
114.8264826524
  0
LWPOLYLINE
  5
11C
330
1F
100
AcDbEntity
  8
0
  6
Continuous
 62
     7
370
    25
100
AcDbPolyline
 90
        3
 70
   128
 43
0.0
 10
101.4772210731
 20
114.4572445278
 10
101.4835772472
 20
114.5437898488
 10
101.523748054
 20
114.61671584
  0
LINE
  5
11D
330
1F
100
AcDbEntity
  8
0
  6
Continuous
 62
     7
370
    25
100
AcDbLine
 10
202.8953990746
 20
102.0090909091
 30
0.0
 11
208.0951514669
 21
102.0090909091
 31
0.0
  0
LINE
  5
11E
330
1F
100
AcDbEntity
  8
0
  6
Continuous
 62
     7
370
    25
100
AcDbLine
 10
202.8944543666
 20
102.127840738
 30
0.0
 11
202.8954545455
 21
102.0090909091
 31
0.0
  0
LINE
  5
11F
330
1F
100
AcDbEntity
  8
0
  6
Continuous
 62
     7
370
    25
100
AcDbLine
 10
208.0957467265
 20
114.7048641418
 30
0.0
 11
208.0956680926
 21
102.0090909091
 31
0.0
  0
LINE
  5
120
330
1F
100
AcDbEntity
  8
0
  6
Continuous
 62
     7
370
    25
100
AcDbLine
 10
77.5951617873
 20
89.3133516706
 30
0.0
 11
77.5952411284
 21
102.0090909091
 31
0.0
  0
LINE
  5
121
330
1F
100
AcDbEntity
  8
0
  6
Continuous
 62
     7
370
    25
100
AcDbLine
 10
82.7954975371
 20
102.0090909091
 30
0.0
 11
77.595757632
 21
102.0090909091
 31
0.0
  0
LINE
  5
122
330
1F
100
AcDbEntity
  8
0
  6
Continuous
 62
     7
370
    25
100
AcDbLine
 10
82.7954545455
 20
102.0090909091
 30
0.0
 11
82.7964541569
 21
101.890374767
 31
0.0
  0
LINE
  5
123
330
1F
100
AcDbEntity
  8
0
  6
Continuous
 62
     7
370
    25
100
AcDbLine
 10
77.5952411284
 20
102.0090909091
 30
0.0
 11
77.5951604048
 21
114.7038740091
 31
0.0
  0
LINE
  5
124
330
1F
100
AcDbEntity
  8
0
  6
Continuous
 62
     7
370
    25
100
AcDbLine
 10
82.7964547256
 20
102.1278408138
 30
0.0
 11
82.7954545455
 21
102.0090909091
 31
0.0
  0
LINE
  5
125
330
1F
100
AcDbEntity
  8
0
  6
Continuous
 62
     7
370
    25
100
AcDbLine
 10
202.8954545455
 20
102.0090909091
 30
0.0
 11
202.8944552881
 21
101.8903957947
 31
0.0
  0
LINE
  5
126
330
1F
100
AcDbEntity
  8
0
  6
Continuous
 62
     7
370
    25
100
AcDbLine
 10
208.0956680926
 20
102.0090909091
 30
0.0
 11
208.0957467778
 21
89.3132986598
 31
0.0
  0
LINE
  5
127
330
1F
100
AcDbEntity
  8
0
  6
Continuous
 62
     7
370
    25
100
AcDbLine
 10
77.8978490428
 20
115.0089872628
 30
0.0
 11
207.7930626802
 21
115.0089880878
 31
0.0
  0
LINE
  5
128
330
1F
100
AcDbEntity
  8
0
  6
Continuous
 62
     7
370
    25
100
AcDbLine
 10
207.7930646859
 20
89.0091941512
 30
0.0
 11
77.8978462709
 21
89.0091943372
 31
0.0
  0
LINE
  5
129
330
1F
100
AcDbEntity
  8
0
  6
Continuous
 62
     7
370
    25
100
AcDbLine
 10
209.0011205428
 20
87.1034249118
 30
0.0
 11
76.6897885482
 21
87.1034249118
 31
0.0
  0
LINE
  5
12A
330
1F
100
AcDbEntity
  8
0
  6
Continuous
 62
     7
370
    25
100
AcDbLine
 10
76.6897885482
 20
87.1034249118
 30
0.0
 11
76.6897885482
 21
116.9147569064
 31
0.0
  0
LINE
  5
12B
330
1F
100
AcDbEntity
  8
0
  6
Continuous
 62
     7
370
    25
100
AcDbLine
 10
209.0011205428
 20
116.9147569064
 30
0.0
 11
76.6897885482
 21
116.9147569064
 31
0.0
  0
LINE
  5
12C
330
1F
100
AcDbEntity
  8
0
  6
Continuous
 62
     7
370
    25
100
AcDbLine
 10
209.0011205428
 20
87.1034249118
 30
0.0
 11
209.0011205428
 21
116.9147569064
 31
0.0
  0
LWPOLYLINE
  5
12D
330
1F
100
AcDbEntity
  8
0
  6
Continuous
 62
     7
370
    25
100
AcDbPolyline
 90
        3
 70
   128
 43
0.0
 10
182.5957259371
 20
114.947501833
 10
183.1154335834
 20
114.9268016675
 10
183.1334186125
 20
114.924399546
  0
LWPOLYLINE
  5
12E
330
1F
100
AcDbEntity
  8
0
  6
Continuous
 62
     7
370
    25
100
AcDbPolyline
 90
        3
 70
   128
 43
0.0
 10
182.0545969295
 20
114.9235709645
 10
182.0853238533
 20
114.9276312389
 10
182.5957259371
 20
114.947501833
  0
LINE
  5
12F
330
1F
100
AcDbEntity
  8
0
  6
Continuous
 62
     7
370
    25
100
AcDbLine
 10
181.0236509865
 20
114.6169090843
 30
0.0
 11
169.3454566612
 21
114.8266655656
 31
0.0
  0
LINE
  5
130
330
1F
100
AcDbEntity
  8
0
  6
Continuous
 62
     7
370
    25
100
AcDbLine
 10
169.3454566612
 20
114.8266655656
 30
0.0
 11
157.6672609151
 21
114.6169089764
 31
0.0
  0
LINE
  5
131
330
1F
100
AcDbEntity
  8
0
  6
Continuous
 62
     7
370
    25
100
AcDbLine
 10
156.6602139976
 20
114.9229892194
 30
0.0
 11
156.0951831847
 21
114.947501833
 31
0.0
  0
LINE
  5
132
330
1F
100
AcDbEntity
  8
0
  6
Continuous
 62
     7
370
    25
100
AcDbLine
 10
156.0951831847
 20
114.947501833
 30
0.0
 11
155.5303611979
 21
114.9229606371
 31
0.0
  0
LINE
  5
133
330
1F
100
AcDbEntity
  8
0
  6
Continuous
 62
     7
370
    25
100
AcDbLine
 10
154.5236515906
 20
114.6169081414
 30
0.0
 11
142.8454440479
 21
114.8266662331
 31
0.0
  0
LINE
  5
134
330
1F
100
AcDbEntity
  8
0
  6
Continuous
 62
     7
370
    25
100
AcDbLine
 10
142.8454440479
 20
114.8266662331
 30
0.0
 11
131.1672599311
 21
114.6169099373
 31
0.0
  0
LINE
  5
135
330
1F
100
AcDbEntity
  8
0
  6
Continuous
 62
     7
370
    25
100
AcDbLine
 10
130.160199537
 20
114.9229905671
 30
0.0
 11
129.5951831847
 21
114.947501833
 31
0.0
  0
LINE
  5
136
330
1F
100
AcDbEntity
  8
0
  6
Continuous
 62
     7
370
    25
100
AcDbLine
 10
129.5951831847
 20
114.947501833
 30
0.0
 11
129.0303611979
 21
114.9229606371
 31
0.0
  0
LINE
  5
137
330
1F
100
AcDbEntity
  8
0
  6
Continuous
 62
     7
370
    25
100
AcDbLine
 10
128.0236515906
 20
114.6169081414
 30
0.0
 11
116.3454440479
 21
114.8266662331
 31
0.0
  0
LINE
  5
138
330
1F
100
AcDbEntity
  8
0
  6
Continuous
 62
     7
370
    25
100
AcDbLine
 10
116.3454440479
 20
114.8266662331
 30
0.0
 11
104.6672599311
 21
114.6169099373
 31
0.0
  0
LINE
  5
139
330
1F
100
AcDbEntity
  8
0
  6
Continuous
 62
     7
370
    25
100
AcDbLine
 10
103.660199537
 20
114.9229905671
 30
0.0
 11
103.0951831847
 21
114.947501833
 31
0.0
  0
LINE
  5
13A
330
1F
100
AcDbEntity
  8
0
  6
Continuous
 62
     7
370
    25
100
AcDbLine
 10
103.0951831847
 20
114.947501833
 30
0.0
 11
102.530376416
 21
114.9229620568
 31
0.0
  0
LINE
  5
13B
330
1F
100
AcDbEntity
  8
0
  6
Continuous
 62
     7
370
    25
100
AcDbLine
 10
102.5376643081
 20
89.0945471518
 30
0.0
 11
103.0951854678
 21
89.0706797863
 31
0.0
  0
ARC
  5
13C
330
1F
100
AcDbEntity
  8
0
  6
Continuous
 62
     7
370
    25
100
AcDbCircle
 10
103.374455427
 20
91.6469027974
 30
0.0
 40
2.591315633647633
100
AcDbArc
 50
263.8131321207
 51
299.9146739481
  0
LINE
  5
13D
330
1F
100
AcDbEntity
  8
0
  6
Continuous
 62
     7
370
    25
100
AcDbLine
 10
104.6667697812
 20
89.4008305985
 30
0.0
 11
116.3454509532
 21
89.1937569465
 31
0.0
  0
LINE
  5
13E
330
1F
100
AcDbEntity
  8
0
  6
Continuous
 62
     7
370
    25
100
AcDbLine
 10
116.3454509532
 20
89.1937569465
 30
0.0
 11
128.0241343483
 21
89.4008300915
 31
0.0
  0
LINE
  5
13F
330
1F
100
AcDbEntity
  8
0
  6
Continuous
 62
     7
370
    25
100
AcDbLine
 10
129.0376643081
 20
89.0945471518
 30
0.0
 11
129.5951854678
 21
89.0706797863
 31
0.0
  0
ARC
  5
140
330
1F
100
AcDbEntity
  8
0
  6
Continuous
 62
     7
370
    25
100
AcDbCircle
 10
129.8744554265
 20
91.6469027997
 30
0.0
 40
2.59131563579168
100
AcDbArc
 50
263.8131321362
 51
299.9146739327
  0
LINE
  5
141
330
1F
100
AcDbEntity
  8
0
  6
Continuous
 62
     7
370
    25
100
AcDbLine
 10
131.1667697812
 20
89.4008305985
 30
0.0
 11
142.8454509532
 21
89.1937569465
 31
0.0
  0
LINE
  5
142
330
1F
100
AcDbEntity
  8
0
  6
Continuous
 62
     7
370
    25
100
AcDbLine
 10
142.8454509532
 20
89.1937569465
 30
0.0
 11
154.5241343483
 21
89.4008300915
 31
0.0
  0
LINE
  5
143
330
1F
100
AcDbEntity
  8
0
  6
Continuous
 62
     7
370
    25
100
AcDbLine
 10
155.5376643081
 20
89.0945471518
 30
0.0
 11
156.0951854678
 21
89.0706797863
 31
0.0
  0
ARC
  5
144
330
1F
100
AcDbEntity
  8
0
  6
Continuous
 62
     7
370
    25
100
AcDbCircle
 10
156.3744554274
 20
91.6469027951
 30
0.0
 40
2.591315631406858
100
AcDbArc
 50
263.8131321046
 51
299.9146739643
  0
LINE
  5
145
330
1F
100
AcDbEntity
  8
0
  6
Continuous
 62
     7
370
    25
100
AcDbLine
 10
157.6667697812
 20
89.4008305985
 30
0.0
 11
169.3454545205
 21
89.1937567677
 31
0.0
  0
LINE
  5
146
330
1F
100
AcDbEntity
  8
0
  6
Continuous
 62
     7
370
    25
100
AcDbLine
 10
169.3454545205
 20
89.1937567677
 30
0.0
 11
181.0241393097
 21
89.4008305985
 31
0.0
  0
ARC
  5
147
330
1F
100
AcDbEntity
  8
0
  6
Continuous
 62
     7
370
    25
100
AcDbCircle
 10
182.3130797917
 20
91.6308425135
 30
0.0
 40
2.575717513120554
100
AcDbArc
 50
239.9722110812
 51
276.2999823902
  0
LWPOLYLINE
  5
148
330
1F
100
AcDbEntity
  8
0
  6
Continuous
 62
     7
370
    25
100
AcDbPolyline
 90
        3
 70
   128
 43
0.0
 10
183.1348229649
 20
89.094391341
 10
183.1060880029
 20
89.0905916344
 10
182.5957235917
 20
89.0706797863
  0
LINE
  5
149
330
1F
100
AcDbEntity
  8
0
  6
Continuous
 62
     7
370
    25
100
AcDbLine
 10
76.595455471
 20
87.0090909296
 30
0.0
 11
209.0954536884
 21
87.0090909392
 31
0.0
  0
LINE
  5
14A
330
1F
100
AcDbEntity
  8
0
  6
Continuous
 62
     7
370
    25
100
AcDbLine
 10
76.6897885482
 20
87.1034249118
 30
0.0
 11
76.595455471
 21
87.0090909296
 31
0.0
  0
LINE
  5
14B
330
1F
100
AcDbEntity
  8
0
  6
Continuous
 62
     7
370
    25
100
AcDbLine
 10
209.0011205428
 20
87.1034249118
 30
0.0
 11
209.0954536884
 21
87.0090909392
 31
0.0
  0
LINE
  5
14C
330
1F
100
AcDbEntity
  8
0
  6
Continuous
 62
     7
370
    25
100
AcDbLine
 10
76.5954595196
 20
115.6089628456
 30
0.0
 11
76.595456257
 21
117.009090929
 31
0.0
  0
LINE
  5
14D
330
1F
100
AcDbEntity
  8
0
  6
Continuous
 62
     7
370
    25
100
AcDbLine
 10
76.6897885482
 20
116.9147569064
 30
0.0
 11
76.595456257
 21
117.009090929
 31
0.0
  0
LINE
  5
14E
330
1F
100
AcDbEntity
  8
0
  6
Continuous
 62
     7
370
    25
100
AcDbLine
 10
76.595455471
 20
87.0090909296
 30
0.0
 11
76.5954579815
 21
88.4091365617
 31
0.0
  0
LINE
  5
14F
330
1F
100
AcDbEntity
  8
0
  6
Continuous
 62
     7
370
    25
100
AcDbLine
 10
76.5954545254
 20
115.6089628456
 30
0.0
 11
76.5954546546
 21
88.4091365617
 31
0.0
  0
LINE
  5
150
330
1F
100
AcDbEntity
  8
0
  6
Continuous
 62
     7
370
    25
100
AcDbLine
 10
209.0954534843
 20
117.0090909103
 30
0.0
 11
76.595456257
 21
117.009090929
 31
0.0
  0
LINE
  5
151
330
1F
100
AcDbEntity
  8
0
  6
Continuous
 62
     7
370
    25
100
AcDbLine
 10
209.0011205428
 20
116.9147569064
 30
0.0
 11
209.0954534843
 21
117.0090909103
 31
0.0
  0
LINE
  5
152
330
1F
100
AcDbEntity
  8
0
  6
Continuous
 62
     7
370
    25
100
AcDbLine
 10
209.0954510289
 20
115.6090407983
 30
0.0
 11
209.0954534842
 21
117.0090909103
 31
0.0
  0
LINE
  5
153
330
1F
100
AcDbEntity
  8
0
  6
Continuous
 62
     7
370
    25
100
AcDbLine
 10
209.0954545122
 20
88.4091399833
 30
0.0
 11
209.0954544283
 21
115.6090407983
 31
0.0
  0
LINE
  5
154
330
1F
100
AcDbEntity
  8
0
  6
Continuous
 62
     7
370
    25
100
AcDbLine
 10
209.0954536884
 20
87.0090909392
 30
0.0
 11
209.0954502978
 21
88.4091399833
 31
0.0
  0
LINE
  5
155
330
1F
100
AcDbEntity
  8
0
  6
Continuous
 62
     7
370
    25
100
AcDbLine
 10
181.0236509792
 20
114.6169050231
 30
0.0
 11
180.9770041716
 21
114.4577881569
 31
0.0
  0
LWPOLYLINE
  5
156
330
1F
100
AcDbEntity
  8
0
  6
Continuous
 62
     7
370
    25
100
AcDbPolyline
 90
        5
 70
   128
 43
0.0
 10
182.5957259371
 20
114.9475002489
 10
182.5957069904
 20
114.9015008803
 10
182.5956902277
 20
114.8177311585
 10
182.5956809665
 20
114.736944455
 10
182.5956758869
 20
114.6555093728
  0
ARC
  5
157
330
1F
100
AcDbEntity
  8
0
  6
Continuous
 62
     7
370
    25
100
AcDbCircle
 10
182.3743406634
 20
112.8686058632
 30
0.0
 40
1.800559200455885
100
AcDbArc
 50
82.9390094761
 51
126.3316064154
  0
LWPOLYLINE
  5
158
330
1F
100
AcDbEntity
  8
0
  6
Continuous
 62
     7
370
    25
100
AcDbPolyline
 90
        5
 70
   128
 43
0.0
 10
103.0951831847
 20
114.9475002489
 10
103.0952021101
 20
114.9014989994
 10
103.0952188394
 20
114.8177273255
 10
103.0952281027
 20
114.7369414525
 10
103.0952332292
 20
114.6555093727
  0
ARC
  5
159
330
1F
100
AcDbEntity
  8
0
  6
Continuous
 62
     7
370
    25
100
AcDbCircle
 10
102.8740666635
 20
112.8693636428
 30
0.0
 40
1.799786436628703
100
AcDbArc
 50
82.9413726247
 51
126.3388711164
  0
LWPOLYLINE
  5
15A
330
1F
100
AcDbEntity
  8
0
  6
Continuous
 62
     7
370
    25
100
AcDbPolyline
 90
        3
 70
   128
 43
0.0
 10
127.9772210731
 20
114.4572445278
 10
127.9835922931
 20
114.5438541093
 10
128.0236516078
 20
114.616849176
  0
LWPOLYLINE
  5
15B
330
1F
100
AcDbEntity
  8
0
  6
Continuous
 62
     7
370
    25
100
AcDbPolyline
 90
        5
 70
   128
 43
0.0
 10
129.5951831847
 20
114.9475002489
 10
129.5952021101
 20
114.9014989994
 10
129.5952188394
 20
114.8177273255
 10
129.5952281027
 20
114.7369414525
 10
129.5952332292
 20
114.6555093727
  0
ARC
  5
15C
330
1F
100
AcDbEntity
  8
0
  6
Continuous
 62
     7
370
    25
100
AcDbCircle
 10
129.3740666635
 20
112.8693636428
 30
0.0
 40
1.799786436628866
100
AcDbArc
 50
82.9413726247
 51
126.3388711163
  0
LWPOLYLINE
  5
15D
330
1F
100
AcDbEntity
  8
0
  6
Continuous
 62
     7
370
    25
100
AcDbPolyline
 90
        3
 70
   128
 43
0.0
 10
154.4772210731
 20
114.4572445278
 10
154.4835922932
 20
114.5438541094
 10
154.5236516078
 20
114.616849176
  0
LWPOLYLINE
  5
15E
330
1F
100
AcDbEntity
  8
0
  6
Continuous
 62
     7
370
    25
100
AcDbPolyline
 90
        5
 70
   128
 43
0.0
 10
156.0951831847
 20
114.9475002489
 10
156.0952021101
 20
114.9014989994
 10
156.0952188394
 20
114.8177273255
 10
156.0952281027
 20
114.7369414525
 10
156.0952332292
 20
114.6555093727
  0
ARC
  5
15F
330
1F
100
AcDbEntity
  8
0
  6
Continuous
 62
     7
370
    25
100
AcDbCircle
 10
155.8740666635
 20
112.8693636428
 30
0.0
 40
1.799786436628513
100
AcDbArc
 50
82.9413726247
 51
126.3388711164
  0
LWPOLYLINE
  5
160
330
1F
100
AcDbEntity
  8
0
  6
Continuous
 62
     7
370
    25
100
AcDbPolyline
 90
        3
 70
   128
 43
0.0
 10
104.667259914
 20
114.6168509787
 10
104.7093675652
 20
114.5439034886
 10
104.7139048132
 20
114.4574607725
  0
ARC
  5
161
330
1F
100
AcDbEntity
  8
0
  6
Continuous
 62
     7
370
    25
100
AcDbCircle
 10
103.3291584064
 20
112.9168176051
 30
0.0
 40
1.754357447045344
100
AcDbArc
 50
53.0667721963
 51
97.6626132961
  0
LWPOLYLINE
  5
162
330
1F
100
AcDbEntity
  8
0
  6
Continuous
 62
     7
370
    25
100
AcDbPolyline
 90
        3
 70
   128
 43
0.0
 10
157.6672608979
 20
114.6168500132
 10
157.7093678186
 20
114.5439032868
 10
157.7139048132
 20
114.4574607725
  0
ARC
  5
163
330
1F
100
AcDbEntity
  8
0
  6
Continuous
 62
     7
370
    25
100
AcDbCircle
 10
156.3291584064
 20
112.9168176051
 30
0.0
 40
1.754357447029635
100
AcDbArc
 50
53.0667721961
 51
97.6626132963
  0
LWPOLYLINE
  5
164
330
1F
100
AcDbEntity
  8
0
  6
Continuous
 62
     7
370
    25
100
AcDbPolyline
 90
        3
 70
   128
 43
0.0
 10
131.167259914
 20
114.6168509787
 10
131.2093675652
 20
114.5439034886
 10
131.2139048132
 20
114.4574607725
  0
ARC
  5
165
330
1F
100
AcDbEntity
  8
0
  6
Continuous
 62
     7
370
    25
100
AcDbCircle
 10
129.8291584064
 20
112.9168176052
 30
0.0
 40
1.754357446989183
100
AcDbArc
 50
53.0667721956
 51
97.6626132969
  0
LWPOLYLINE
  5
166
330
1F
100
AcDbEntity
  8
0
  6
Continuous
 62
     7
370
    25
100
AcDbPolyline
 90
        5
 70
   128
 43
0.0
 10
182.5957235917
 20
89.0706812969
 10
182.5957048064
 20
89.1162621511
 10
182.5956881466
 20
89.1997002828
 10
182.5956789079
 20
89.2806703743
 10
182.5956738257
 20
89.3626722982
  0
ARC
  5
167
330
1F
100
AcDbEntity
  8
0
  6
Continuous
 62
     7
370
    25
100
AcDbCircle
 10
182.8167952292
 20
91.1490011098
 30
0.0
 40
1.799962582303712
100
AcDbArc
 50
262.9435154616
 51
306.3365461004
  0
LWPOLYLINE
  5
168
330
1F
100
AcDbEntity
  8
0
  6
Continuous
 62
     7
370
    25
100
AcDbPolyline
 90
        3
 70
   128
 43
0.0
 10
154.524134365
 20
89.4008869002
 10
154.4826428495
 20
89.4754959935
 10
154.4771204611
 20
89.5608386455
  0
ARC
  5
169
330
1F
100
AcDbEntity
  8
0
  6
Continuous
 62
     7
370
    25
100
AcDbCircle
 10
155.8738537371
 20
91.1480053914
 30
0.0
 40
1.79900639861922
100
AcDbArc
 50
233.6513374168
 51
277.0686013521
  0
LWPOLYLINE
  5
16A
330
1F
100
AcDbEntity
  8
0
  6
Continuous
 62
     7
370
    25
100
AcDbPolyline
 90
        5
 70
   128
 43
0.0
 10
156.0951854678
 20
89.0706812969
 10
156.0952043782
 20
89.1166810075
 10
156.0952210622
 20
89.2004515804
 10
156.0952302432
 20
89.2812381758
 10
156.0952352397
 20
89.3626722983
  0
LWPOLYLINE
  5
16B
330
1F
100
AcDbEntity
  8
0
  6
Continuous
 62
     7
370
    25
100
AcDbPolyline
 90
        3
 70
   128
 43
0.0
 10
128.024134365
 20
89.4008869002
 10
127.9826428495
 20
89.4754959935
 10
127.9771204611
 20
89.5608386455
  0
ARC
  5
16C
330
1F
100
AcDbEntity
  8
0
  6
Continuous
 62
     7
370
    25
100
AcDbCircle
 10
129.3738537371
 20
91.1480053914
 30
0.0
 40
1.79900639861288
100
AcDbArc
 50
233.6513374167
 51
277.0686013522
  0
LWPOLYLINE
  5
16D
330
1F
100
AcDbEntity
  8
0
  6
Continuous
 62
     7
370
    25
100
AcDbPolyline
 90
        5
 70
   128
 43
0.0
 10
129.5951854678
 20
89.0706812969
 10
129.5952043782
 20
89.1166810075
 10
129.5952210622
 20
89.2004515804
 10
129.5952302432
 20
89.2812381758
 10
129.5952352397
 20
89.3626722983
  0
ARC
  5
16E
330
1F
100
AcDbEntity
  8
0
  6
Continuous
 62
     7
370
    25
100
AcDbCircle
 10
102.873853737
 20
91.1480053913
 30
0.0
 40
1.799006398575907
100
AcDbArc
 50
233.6513374162
 51
277.0686013527
  0
LWPOLYLINE
  5
16F
330
1F
100
AcDbEntity
  8
0
  6
Continuous
 62
     7
370
    25
100
AcDbPolyline
 90
        5
 70
   128
 43
0.0
 10
103.0951854678
 20
89.0706812969
 10
103.0952043782
 20
89.1166810075
 10
103.0952210622
 20
89.2004515804
 10
103.0952302432
 20
89.2812381758
 10
103.0952352397
 20
89.3626722983
  0
ARC
  5
170
330
1F
100
AcDbEntity
  8
0
  6
Continuous
 62
     7
370
    25
100
AcDbCircle
 10
182.8293654937
 20
112.9173026768
 30
0.0
 40
1.753845303659585
100
AcDbArc
 50
53.0626584909
 51
97.6570991088
  0
LWPOLYLINE
  5
171
330
1F
100
AcDbEntity
  8
0
  6
Continuous
 62
     7
370
    25
100
AcDbPolyline
 90
        3
 70
   128
 43
0.0
 10
157.6667697819
 20
89.4008342512
 10
157.6932481685
 20
89.4707031906
 10
157.7008206225
 20
89.5547296324
  0
ARC
  5
172
330
1F
100
AcDbEntity
  8
0
  6
Continuous
 62
     7
370
    25
100
AcDbCircle
 10
156.3166438526
 20
91.149292215
 30
0.0
 40
1.800286783144061
100
AcDbArc
 50
262.9355820278
 51
306.3349372948
  0
LWPOLYLINE
  5
173
330
1F
100
AcDbEntity
  8
0
  6
Continuous
 62
     7
370
    25
100
AcDbPolyline
 90
        3
 70
   128
 43
0.0
 10
104.6667697819
 20
89.4008342512
 10
104.6932481685
 20
89.4707031906
 10
104.7008206225
 20
89.5547296324
  0
ARC
  5
174
330
1F
100
AcDbEntity
  8
0
  6
Continuous
 62
     7
370
    25
100
AcDbCircle
 10
103.3166438526
 20
91.149292215
 30
0.0
 40
1.800286783143248
100
AcDbArc
 50
262.9355820278
 51
306.3349372948
  0
LWPOLYLINE
  5
175
330
1F
100
AcDbEntity
  8
0
  6
Continuous
 62
     7
370
    25
100
AcDbPolyline
 90
        3
 70
   128
 43
0.0
 10
131.1667697819
 20
89.4008342512
 10
131.1932481685
 20
89.4707031906
 10
131.2008206225
 20
89.5547296324
  0
ARC
  5
176
330
1F
100
AcDbEntity
  8
0
  6
Continuous
 62
     7
370
    25
100
AcDbCircle
 10
129.8166438526
 20
91.149292215
 30
0.0
 40
1.800286783142996
100
AcDbArc
 50
262.9355820278
 51
306.3349372948
  0
ARC
  5
177
330
1F
100
AcDbEntity
  8
0
  6
Continuous
 62
     7
370
    25
100
AcDbCircle
 10
182.3617616182
 20
91.1014109651
 30
0.0
 40
1.754402198309214
100
AcDbArc
 50
233.0674919015
 51
277.6619892809
  0
LINE
  5
178
330
1F
100
AcDbEntity
  8
0
  6
Continuous
 62
     7
370
    25
100
AcDbLine
 10
180.9900884684
 20
89.5547296324
 30
0.0
 11
181.024139309
 21
89.4008342512
 31
0.0
  0
LINE
  5
179
330
1F
100
AcDbEntity
  8
0
  6
Continuous
 62
     7
370
    25
100
AcDbLine
 10
101.8075796535
 20
89.8091095062
 30
0.0
 11
101.8075792833
 21
114.2090769591
 31
0.0
  0
LINE
  5
17A
330
1F
100
AcDbEntity
  8
0
  6
Continuous
 62
     7
370
    25
100
AcDbLine
 10
104.3833294374
 20
89.8091095017
 30
0.0
 11
104.3833298076
 21
114.2090769559
 31
0.0
  0
LINE
  5
17B
330
1F
100
AcDbEntity
  8
0
  6
Continuous
 62
     7
370
    25
100
AcDbLine
 10
154.8075796535
 20
89.8091095062
 30
0.0
 11
154.8075792833
 21
114.2090769591
 31
0.0
  0
LINE
  5
17C
330
1F
100
AcDbEntity
  8
0
  6
Continuous
 62
     7
370
    25
100
AcDbLine
 10
157.3833294374
 20
89.8091095017
 30
0.0
 11
157.3833298076
 21
114.2090769559
 31
0.0
  0
LINE
  5
17D
330
1F
100
AcDbEntity
  8
0
  6
Continuous
 62
     7
370
    25
100
AcDbLine
 10
128.3075796535
 20
89.8091095062
 30
0.0
 11
128.3075792833
 21
114.2090769591
 31
0.0
  0
LINE
  5
17E
330
1F
100
AcDbEntity
  8
0
  6
Continuous
 62
     7
370
    25
100
AcDbLine
 10
130.8833294374
 20
89.8091095017
 30
0.0
 11
130.8833298076
 21
114.2090769559
 31
0.0
  0
LINE
  5
17F
330
1F
100
AcDbEntity
  8
0
  6
Continuous
 62
     7
370
    25
100
AcDbLine
 10
181.3075796535
 20
89.8091095063
 30
0.0
 11
181.3075792833
 21
114.2090769574
 31
0.0
  0
LINE
  5
180
330
1F
100
AcDbEntity
  8
0
  6
Continuous
 62
     7
370
    25
100
AcDbLine
 10
183.8833294374
 20
89.8091095039
 30
0.0
 11
183.8833298076
 21
114.2090769642
 31
0.0
  0
LWPOLYLINE
  5
181
330
1F
100
AcDbEntity
  8
0
  6
Continuous
 62
     7
370
    25
100
AcDbPolyline
 90
        8
 70
   128
 43
0.0
 10
169.3454545455
 20
94.9590909091
 10
169.3451831541
 20
93.9986512581
 10
169.344987312
 20
93.1065289256
 10
169.345093792
 20
92.3049934125
 10
169.3455541234
 20
91.5991049732
 10
169.3461515719
 20
90.7510476928
 10
169.3460220641
 20
89.9398655398
 10
169.3454545202
 20
89.193931022
  0
LINE
  5
182
330
1F
100
AcDbEntity
  8
0
  6
Continuous
 62
     7
370
    25
100
AcDbLine
 10
169.2404385977
 20
94.9598731049
 30
0.0
 11
169.3454545455
 21
94.9590909091
 31
0.0
  0
LWPOLYLINE
  5
183
330
1F
100
AcDbEntity
  8
0
  6
Continuous
 62
     7
370
    25
100
AcDbPolyline
 90
        8
 70
   128
 43
0.0
 10
116.3454545455
 20
94.9590909091
 10
116.345190254
 20
93.9990582308
 10
116.344997689
 20
93.1070628997
 10
116.3451049493
 20
92.3055046565
 10
116.3455644429
 20
91.5995300319
 10
116.3461591825
 20
90.7513499822
 10
116.3460250408
 20
89.940025722
 10
116.3454509529
 20
89.193931201
  0
LINE
  5
184
330
1F
100
AcDbEntity
  8
0
  6
Continuous
 62
     7
370
    25
100
AcDbLine
 10
116.2404385977
 20
94.9598731049
 30
0.0
 11
116.3454545455
 21
94.9590909091
 31
0.0
  0
LWPOLYLINE
  5
185
330
1F
100
AcDbEntity
  8
0
  6
Continuous
 62
     7
370
    25
100
AcDbPolyline
 90
        8
 70
   128
 43
0.0
 10
142.8454545455
 20
94.9590909091
 10
142.8451902541
 20
93.9990582446
 10
142.8449976891
 20
93.1070629178
 10
142.8451049494
 20
92.3055046738
 10
142.845564443
 20
91.5995300463
 10
142.8461591825
 20
90.7513499924
 10
142.8460250408
 20
89.9400257274
 10
142.8454509529
 20
89.193931201
  0
LINE
  5
186
330
1F
100
AcDbEntity
  8
0
  6
Continuous
 62
     7
370
    25
100
AcDbLine
 10
142.7404385977
 20
94.9598731049
 30
0.0
 11
142.8454545455
 21
94.9590909091
 31
0.0
  0
LINE
  5
187
330
1F
100
AcDbEntity
  8
0
  6
Continuous
 62
     7
370
    25
100
AcDbLine
 10
142.8454545455
 20
94.9590909091
 30
0.0
 11
142.9504704932
 21
94.9598731049
 31
0.0
  0
LINE
  5
188
330
1F
100
AcDbEntity
  8
0
  6
Continuous
 62
     7
370
    25
100
AcDbLine
 10
116.3454545455
 20
94.9590909091
 30
0.0
 11
116.4504704932
 21
94.9598731049
 31
0.0
  0
LINE
  5
189
330
1F
100
AcDbEntity
  8
0
  6
Continuous
 62
     7
370
    25
100
AcDbLine
 10
169.3454545455
 20
94.9590909091
 30
0.0
 11
169.4504704933
 21
94.9598731049
 31
0.0
  0
LWPOLYLINE
  5
18A
330
1F
100
AcDbEntity
  8
0
  6
Continuous
 62
     7
370
    25
100
AcDbPolyline
 90
        8
 70
   128
 43
0.0
 10
116.3454545455
 20
109.0590909091
 10
116.3457162223
 20
110.0205397455
 10
116.3459024425
 20
110.913236489
 10
116.3457878689
 20
111.7150526118
 10
116.3453223264
 20
112.4210608273
 10
116.3447253557
 20
113.269316596
 10
116.3448633792
 20
114.0806974312
 10
116.3454440481
 20
114.8264941656
  0
LINE
  5
18B
330
1F
100
AcDbEntity
  8
0
  6
Continuous
 62
     7
370
    25
100
AcDbLine
 10
116.4505810693
 20
109.0583070651
 30
0.0
 11
116.3454545455
 21
109.0590909091
 31
0.0
  0
LWPOLYLINE
  5
18C
330
1F
100
AcDbEntity
  8
0
  6
Continuous
 62
     7
370
    25
100
AcDbPolyline
 90
        8
 70
   128
 43
0.0
 10
142.8454545455
 20
109.0590909091
 10
142.8457162222
 20
110.0205397298
 10
142.8459024424
 20
110.9132364683
 10
142.8457878689
 20
111.7150525919
 10
142.8453223263
 20
112.4210608108
 10
142.8447253557
 20
113.2693165843
 10
142.8448633792
 20
114.080697425
 10
142.8454440481
 20
114.8264941656
  0
LINE
  5
18D
330
1F
100
AcDbEntity
  8
0
  6
Continuous
 62
     7
370
    25
100
AcDbLine
 10
142.9505810693
 20
109.0583070651
 30
0.0
 11
142.8454545455
 21
109.0590909091
 31
0.0
  0
LWPOLYLINE
  5
18E
330
1F
100
AcDbEntity
  8
0
  6
Continuous
 62
     7
370
    25
100
AcDbPolyline
 90
        8
 70
   128
 43
0.0
 10
169.3454545455
 20
109.0590909091
 10
169.3457220223
 20
110.02075955
 10
169.3459119342
 20
110.9135247254
 10
169.3457996616
 20
111.7153283828
 10
169.345335505
 20
112.421289954
 10
169.3447394574
 20
113.2694793041
 10
169.3448772892
 20
114.0807832244
 10
169.3454566614
 20
114.8264934975
  0
LINE
  5
18F
330
1F
100
AcDbEntity
  8
0
  6
Continuous
 62
     7
370
    25
100
AcDbLine
 10
169.4505810693
 20
109.0583070651
 30
0.0
 11
169.3454545455
 21
109.0590909091
 31
0.0
  0
LINE
  5
190
330
1F
100
AcDbEntity
  8
0
  6
Continuous
 62
     7
370
    25
100
AcDbLine
 10
116.3454545455
 20
109.0590909091
 30
0.0
 11
116.2403280216
 21
109.0583070651
 31
0.0
  0
LINE
  5
191
330
1F
100
AcDbEntity
  8
0
  6
Continuous
 62
     7
370
    25
100
AcDbLine
 10
142.8454545455
 20
109.0590909091
 30
0.0
 11
142.7403280216
 21
109.0583070651
 31
0.0
  0
LINE
  5
192
330
1F
100
AcDbEntity
  8
0
  6
Continuous
 62
     7
370
    25
100
AcDbLine
 10
169.3454545455
 20
109.0590909091
 30
0.0
 11
169.2403280216
 21
109.0583070651
 31
0.0
  0
LINE
  5
193
330
1F
100
AcDbEntity
  8
0
  6
Continuous
 62
     7
370
    25
100
AcDbLine
 10
178.1491727972
 20
106.4437505319
 30
0.0
 11
178.1491727971
 21
97.5744310444
 31
0.0
  0
LINE
  5
194
330
1F
100
AcDbEntity
  8
0
  6
Continuous
 62
     7
370
    25
100
AcDbLine
 10
151.6491727972
 20
106.4437505318
 30
0.0
 11
151.6491727971
 21
97.5744310444
 31
0.0
  0
LINE
  5
195
330
1F
100
AcDbEntity
  8
0
  6
Continuous
 62
     7
370
    25
100
AcDbLine
 10
125.1491727972
 20
106.4437505318
 30
0.0
 11
125.1491727971
 21
97.5744310444
 31
0.0
  0
LINE
  5
196
330
1F
100
AcDbEntity
  8
0
  6
Continuous
 62
     7
370
    25
100
AcDbLine
 10
98.6491727972
 20
106.4437505318
 30
0.0
 11
98.6491727971
 21
97.5744310444
 31
0.0
  0
LINE
  5
197
330
1F
100
AcDbEntity
  8
0
  6
Continuous
 62
     7
370
    25
100
AcDbLine
 10
187.0417362937
 20
106.4437505319
 30
0.0
 11
187.0417362938
 21
97.5744310444
 31
0.0
  0
LINE
  5
198
330
1F
100
AcDbEntity
  8
0
  6
Continuous
 62
     7
370
    25
100
AcDbLine
 10
134.0417362937
 20
106.4437505319
 30
0.0
 11
134.0417362938
 21
97.5744310444
 31
0.0
  0
LINE
  5
199
330
1F
100
AcDbEntity
  8
0
  6
Continuous
 62
     7
370
    25
100
AcDbLine
 10
107.5417362937
 20
106.4437505319
 30
0.0
 11
107.5417362938
 21
97.5744310444
 31
0.0
  0
LINE
  5
19A
330
1F
100
AcDbEntity
  8
0
  6
Continuous
 62
     7
370
    25
100
AcDbLine
 10
160.5417362937
 20
106.4437505319
 30
0.0
 11
160.5417362938
 21
97.5744310444
 31
0.0
  0
LINE
  5
19B
330
1F
100
AcDbEntity
  8
0
  6
Continuous
 62
     7
370
    25
100
AcDbLine
 10
176.3944234975
 20
101.8885226192
 30
0.0
 11
176.3954545455
 21
102.0090909091
 31
0.0
  0
LINE
  5
19C
330
1F
100
AcDbEntity
  8
0
  6
Continuous
 62
     7
370
    25
100
AcDbLine
 10
176.3954545455
 20
102.0090909091
 30
0.0
 11
176.3944237234
 21
102.1296459926
 31
0.0
  0
LINE
  5
19D
330
1F
100
AcDbEntity
  8
0
  6
Continuous
 62
     7
370
    25
100
AcDbLine
 10
149.8954434841
 20
102.0090909092
 30
0.0
 11
149.8944537664
 21
101.8885209085
 31
0.0
  0
LINE
  5
19E
330
1F
100
AcDbEntity
  8
0
  6
Continuous
 62
     7
370
    25
100
AcDbLine
 10
149.8944502954
 20
102.1296451816
 30
0.0
 11
149.8954434841
 21
102.0090909092
 31
0.0
  0
LINE
  5
19F
330
1F
100
AcDbEntity
  8
0
  6
Continuous
 62
     7
370
    25
100
AcDbLine
 10
123.3954434841
 20
102.0090909092
 30
0.0
 11
123.3944537664
 21
101.8885209085
 31
0.0
  0
LINE
  5
1A0
330
1F
100
AcDbEntity
  8
0
  6
Continuous
 62
     7
370
    25
100
AcDbLine
 10
123.3944502954
 20
102.1296451816
 30
0.0
 11
123.3954434841
 21
102.0090909092
 31
0.0
  0
LINE
  5
1A1
330
1F
100
AcDbEntity
  8
0
  6
Continuous
 62
     7
370
    25
100
AcDbLine
 10
96.8954434841
 20
102.0090909092
 30
0.0
 11
96.8944537664
 21
101.8885209085
 31
0.0
  0
LINE
  5
1A2
330
1F
100
AcDbEntity
  8
0
  6
Continuous
 62
     7
370
    25
100
AcDbLine
 10
96.8944502954
 20
102.1296451816
 30
0.0
 11
96.8954434841
 21
102.0090909092
 31
0.0
  0
LINE
  5
1A3
330
1F
100
AcDbEntity
  8
0
  6
Continuous
 62
     7
370
    25
100
AcDbLine
 10
135.7954652675
 20
102.0090909089
 30
0.0
 11
135.7964584686
 21
102.1296449584
 31
0.0
  0
LINE
  5
1A4
330
1F
100
AcDbEntity
  8
0
  6
Continuous
 62
     7
370
    25
100
AcDbLine
 10
135.7964562279
 20
101.8885226897
 30
0.0
 11
135.7954652675
 21
102.0090909089
 31
0.0
  0
LINE
  5
1A5
330
1F
100
AcDbEntity
  8
0
  6
Continuous
 62
     7
370
    25
100
AcDbLine
 10
109.2954652675
 20
102.0090909089
 30
0.0
 11
109.2964584686
 21
102.1296449584
 31
0.0
  0
LINE
  5
1A6
330
1F
100
AcDbEntity
  8
0
  6
Continuous
 62
     7
370
    25
100
AcDbLine
 10
109.2964562279
 20
101.8885226897
 30
0.0
 11
109.2954652675
 21
102.0090909089
 31
0.0
  0
LINE
  5
1A7
330
1F
100
AcDbEntity
  8
0
  6
Continuous
 62
     7
370
    25
100
AcDbLine
 10
162.2954652675
 20
102.0090909089
 30
0.0
 11
162.2964584686
 21
102.1296449584
 31
0.0
  0
LINE
  5
1A8
330
1F
100
AcDbEntity
  8
0
  6
Continuous
 62
     7
370
    25
100
AcDbLine
 10
162.2964562279
 20
101.8885226897
 30
0.0
 11
162.2954652675
 21
102.0090909089
 31
0.0
  0
LINE
  5
1A9
330
1F
100
AcDbEntity
  8
0
  6
Continuous
 62
     7
370
    25
100
AcDbLine
 10
188.7954684147
 20
102.0090890478
 30
0.0
 11
188.7964589501
 21
102.1296449346
 31
0.0
  0
LINE
  5
1AA
330
1F
100
AcDbEntity
  8
0
  6
Continuous
 62
     7
370
    25
100
AcDbLine
 10
188.7964562077
 20
101.888521662
 30
0.0
 11
188.7954684147
 21
102.0090890478
 31
0.0
  0
ARC
  5
1AB
330
1F
100
AcDbEntity
  8
0
  6
Continuous
 62
     7
370
    25
100
AcDbCircle
 10
89.8454545455
 20
102.0090909091
 30
0.0
 40
6.834285653728003
100
AcDbArc
 50
270.0
 51
90.0
  0
ARC
  5
1AC
330
1F
100
AcDbEntity
  8
0
  6
Continuous
 62
     7
370
    25
100
AcDbCircle
 10
89.8454545455
 20
102.0090909091
 30
0.0
 40
6.834285653728003
100
AcDbArc
 50
90.0
 51
270.0
  0
ARC
  5
1AD
330
1F
100
AcDbEntity
  8
0
  6
Continuous
 62
     7
370
    25
100
AcDbCircle
 10
89.8454545455
 20
102.0090909091
 30
0.0
 40
6.850000000000009
100
AcDbArc
 50
90.0
 51
270.0
  0
LINE
  5
1AE
330
1F
100
AcDbEntity
  8
0
  6
Continuous
 62
     7
370
    25
100
AcDbLine
 10
89.8454545455
 20
108.8590909091
 30
0.0
 11
89.8454545455
 21
108.8433765628
 31
0.0
  0
LINE
  5
1AF
330
1F
100
AcDbEntity
  8
0
  6
Continuous
 62
     7
370
    25
100
AcDbLine
 10
89.8454545455
 20
95.1590909091
 30
0.0
 11
89.8454545455
 21
95.1748052554
 31
0.0
  0
ARC
  5
1B0
330
1F
100
AcDbEntity
  8
0
  6
Continuous
 62
     7
370
    25
100
AcDbCircle
 10
89.8454545455
 20
102.0090909091
 30
0.0
 40
6.850000000000009
100
AcDbArc
 50
270.0
 51
90.0
  0
ARC
  5
1B1
330
1F
100
AcDbEntity
  8
0
  6
Continuous
 62
     7
370
    25
100
AcDbCircle
 10
116.3454545455
 20
102.0090909091
 30
0.0
 40
6.834285653728017
100
AcDbArc
 50
270.0
 51
90.0
  0
ARC
  5
1B2
330
1F
100
AcDbEntity
  8
0
  6
Continuous
 62
     7
370
    25
100
AcDbCircle
 10
116.3454545455
 20
102.0090909091
 30
0.0
 40
6.834285653728017
100
AcDbArc
 50
90.0
 51
270.0
  0
ARC
  5
1B3
330
1F
100
AcDbEntity
  8
0
  6
Continuous
 62
     7
370
    25
100
AcDbCircle
 10
116.3454545455
 20
102.0090909091
 30
0.0
 40
6.850000000000009
100
AcDbArc
 50
270.0
 51
90.0
  0
LINE
  5
1B4
330
1F
100
AcDbEntity
  8
0
  6
Continuous
 62
     7
370
    25
100
AcDbLine
 10
116.3454545455
 20
95.1590909091
 30
0.0
 11
116.3454545455
 21
95.1748052554
 31
0.0
  0
LINE
  5
1B5
330
1F
100
AcDbEntity
  8
0
  6
Continuous
 62
     7
370
    25
100
AcDbLine
 10
116.3454545455
 20
108.8590909091
 30
0.0
 11
116.3454545455
 21
108.8433765628
 31
0.0
  0
ARC
  5
1B6
330
1F
100
AcDbEntity
  8
0
  6
Continuous
 62
     7
370
    25
100
AcDbCircle
 10
116.3454545455
 20
102.0090909091
 30
0.0
 40
6.850000000000009
100
AcDbArc
 50
90.0
 51
270.0
  0
ARC
  5
1B7
330
1F
100
AcDbEntity
  8
0
  6
Continuous
 62
     7
370
    25
100
AcDbCircle
 10
142.8454545455
 20
102.0090909091
 30
0.0
 40
6.850000000000009
100
AcDbArc
 50
90.0
 51
270.0
  0
LINE
  5
1B8
330
1F
100
AcDbEntity
  8
0
  6
Continuous
 62
     7
370
    25
100
AcDbLine
 10
142.8454545455
 20
108.8590909091
 30
0.0
 11
142.8454545455
 21
108.8433765628
 31
0.0
  0
ARC
  5
1B9
330
1F
100
AcDbEntity
  8
0
  6
Continuous
 62
     7
370
    25
100
AcDbCircle
 10
142.8454545455
 20
102.0090909091
 30
0.0
 40
6.834285653728017
100
AcDbArc
 50
90.0
 51
270.0
  0
LINE
  5
1BA
330
1F
100
AcDbEntity
  8
0
  6
Continuous
 62
     7
370
    25
100
AcDbLine
 10
142.8454545455
 20
95.1590909091
 30
0.0
 11
142.8454545455
 21
95.1748052554
 31
0.0
  0
ARC
  5
1BB
330
1F
100
AcDbEntity
  8
0
  6
Continuous
 62
     7
370
    25
100
AcDbCircle
 10
195.8454545455
 20
102.0090909091
 30
0.0
 40
6.849999999999994
100
AcDbArc
 50
90.0
 51
270.0
  0
LINE
  5
1BC
330
1F
100
AcDbEntity
  8
0
  6
Continuous
 62
     7
370
    25
100
AcDbLine
 10
195.8454545455
 20
108.8590909091
 30
0.0
 11
195.8454545455
 21
108.8433765628
 31
0.0
  0
ARC
  5
1BD
330
1F
100
AcDbEntity
  8
0
  6
Continuous
 62
     7
370
    25
100
AcDbCircle
 10
195.8454545455
 20
102.0090909091
 30
0.0
 40
6.834285653728003
100
AcDbArc
 50
90.0
 51
270.0
  0
LINE
  5
1BE
330
1F
100
AcDbEntity
  8
0
  6
Continuous
 62
     7
370
    25
100
AcDbLine
 10
195.8454545455
 20
95.1590909091
 30
0.0
 11
195.8454545455
 21
95.1748052554
 31
0.0
  0
ARC
  5
1BF
330
1F
100
AcDbEntity
  8
0
  6
Continuous
 62
     7
370
    25
100
AcDbCircle
 10
169.3454545455
 20
102.0090909091
 30
0.0
 40
6.850000000000009
100
AcDbArc
 50
90.0
 51
270.0
  0
LINE
  5
1C0
330
1F
100
AcDbEntity
  8
0
  6
Continuous
 62
     7
370
    25
100
AcDbLine
 10
169.3454545455
 20
108.8590909091
 30
0.0
 11
169.3454545455
 21
108.8433765628
 31
0.0
  0
ARC
  5
1C1
330
1F
100
AcDbEntity
  8
0
  6
Continuous
 62
     7
370
    25
100
AcDbCircle
 10
169.3454545455
 20
102.0090909091
 30
0.0
 40
6.834285653728003
100
AcDbArc
 50
90.0
 51
270.0
  0
LINE
  5
1C2
330
1F
100
AcDbEntity
  8
0
  6
Continuous
 62
     7
370
    25
100
AcDbLine
 10
169.3454545455
 20
95.1590909091
 30
0.0
 11
169.3454545455
 21
95.1748052554
 31
0.0
  0
ARC
  5
1C3
330
1F
100
AcDbEntity
  8
0
  6
Continuous
 62
     7
370
    25
100
AcDbCircle
 10
195.8454545455
 20
102.0090909091
 30
0.0
 40
6.834285653728003
100
AcDbArc
 50
270.0
 51
90.0
  0
ARC
  5
1C4
330
1F
100
AcDbEntity
  8
0
  6
Continuous
 62
     7
370
    25
100
AcDbCircle
 10
142.8454545455
 20
102.0090909091
 30
0.0
 40
6.850000000000009
100
AcDbArc
 50
270.0
 51
90.0
  0
ARC
  5
1C5
330
1F
100
AcDbEntity
  8
0
  6
Continuous
 62
     7
370
    25
100
AcDbCircle
 10
142.8454545455
 20
102.0090909091
 30
0.0
 40
6.834285653728017
100
AcDbArc
 50
270.0
 51
90.0
  0
ARC
  5
1C6
330
1F
100
AcDbEntity
  8
0
  6
Continuous
 62
     7
370
    25
100
AcDbCircle
 10
169.3454545455
 20
102.0090909091
 30
0.0
 40
6.850000000000009
100
AcDbArc
 50
270.0
 51
90.0
  0
ARC
  5
1C7
330
1F
100
AcDbEntity
  8
0
  6
Continuous
 62
     7
370
    25
100
AcDbCircle
 10
169.3454545455
 20
102.0090909091
 30
0.0
 40
6.834285653728003
100
AcDbArc
 50
270.0
 51
90.0
  0
ARC
  5
1C8
330
1F
100
AcDbEntity
  8
0
  6
Continuous
 62
     7
370
    25
100
AcDbCircle
 10
195.8454545455
 20
102.0090909091
 30
0.0
 40
6.849999999999994
100
AcDbArc
 50
270.0
 51
90.0
  0
LINE
  5
1C9
330
1F
100
AcDbEntity
  8
0
  6
Continuous
 62
     7
370
    25
100
AcDbLine
 10
209.8312409831
 20
100.0090909091
 30
0.0
 11
209.8312409831
 21
104.0090909091
 31
0.0
  0
LINE
  5
1CA
330
1F
100
AcDbEntity
  8
0
  6
Continuous
 62
     7
370
    25
100
AcDbLine
 10
75.8596681078
 20
102.0090909091
 30
0.0
 11
75.8596681078
 21
100.0090909091
 31
0.0
  0
LINE
  5
1CB
330
1F
100
AcDbEntity
  8
0
  6
Continuous
 62
     7
370
    25
100
AcDbLine
 10
75.8596681078
 20
104.0090909091
 30
0.0
 11
75.8596681078
 21
102.0090909091
 31
0.0
  0
ARC
  5
1CC
330
1F
100
AcDbEntity
  8
0
  6
Continuous
 62
     7
370
    25
100
AcDbCircle
 10
183.1783078281
 20
113.1830097594
 30
0.0
 40
1.741968263330709
100
AcDbArc
 50
55.4293028754
 51
91.4766327201
  0
ARC
  5
1CD
330
1F
100
AcDbEntity
  8
0
  6
Continuous
 62
     7
370
    25
100
AcDbCircle
 10
182.0098648812
 20
113.1876877857
 30
0.0
 40
1.736459434108358
100
AcDbArc
 50
88.5238692719
 51
124.6070660109
  0
ARC
  5
1CE
330
1F
100
AcDbEntity
  8
0
  6
Continuous
 62
     7
370
    25
100
AcDbCircle
 10
156.704809921
 20
113.2600131571
 30
0.0
 40
1.663573917902486
100
AcDbArc
 50
54.6517875671
 51
91.5361291159
  0
ARC
  5
1CF
330
1F
100
AcDbEntity
  8
0
  6
Continuous
 62
     7
370
    25
100
AcDbCircle
 10
155.4859162058
 20
113.2604256524
 30
0.0
 40
1.663128958472488
100
AcDbArc
 50
88.4686613399
 51
125.3512134131
  0
ARC
  5
1D0
330
1F
100
AcDbEntity
  8
0
  6
Continuous
 62
     7
370
    25
100
AcDbCircle
 10
130.2047979605
 20
113.2599820682
 30
0.0
 40
1.663606409803926
100
AcDbArc
 50
54.6521178257
 51
91.5361852427
  0
ARC
  5
1D1
330
1F
100
AcDbEntity
  8
0
  6
Continuous
 62
     7
370
    25
100
AcDbCircle
 10
128.9859162058
 20
113.2604256524
 30
0.0
 40
1.663128958466252
100
AcDbArc
 50
88.46866134
 51
125.3512134131
  0
ARC
  5
1D2
330
1F
100
AcDbEntity
  8
0
  6
Continuous
 62
     7
370
    25
100
AcDbCircle
 10
103.7047979605
 20
113.2599820682
 30
0.0
 40
1.663606409804207
100
AcDbArc
 50
54.6521178257
 51
91.5361852427
  0
ARC
  5
1D3
330
1F
100
AcDbEntity
  8
0
  6
Continuous
 62
     7
370
    25
100
AcDbCircle
 10
102.4855133952
 20
113.2626512159
 30
0.0
 40
1.660916848951204
100
AcDbArc
 50
88.4521955967
 51
125.3842364491
  0
ARC
  5
1D4
330
1F
100
AcDbEntity
  8
0
  6
Continuous
 62
     7
370
    25
100
AcDbCircle
 10
102.4930384144
 20
90.7769667786
 30
0.0
 40
1.683011369848574
100
AcDbArc
 50
234.8515639327
 51
271.5194045128
  0
ARC
  5
1D5
330
1F
100
AcDbEntity
  8
0
  6
Continuous
 62
     7
370
    25
100
AcDbCircle
 10
128.9930384144
 20
90.7769667786
 30
0.0
 40
1.683011369839755
100
AcDbArc
 50
234.8515639327
 51
271.5194045126
  0
ARC
  5
1D6
330
1F
100
AcDbEntity
  8
0
  6
Continuous
 62
     7
370
    25
100
AcDbCircle
 10
155.4930384144
 20
90.7769667786
 30
0.0
 40
1.683011369849917
100
AcDbArc
 50
234.8515639327
 51
271.5194045128
  0
ARC
  5
1D7
330
1F
100
AcDbEntity
  8
0
  6
Continuous
 62
     7
370
    25
100
AcDbCircle
 10
183.1798781163
 20
90.8334643443
 30
0.0
 40
1.739656540090372
100
AcDbArc
 50
268.5159376946
 51
304.5617858232
  0
LINE
  5
1D8
330
1F
100
AcDbEntity
  8
0
  6
Continuous
 62
     7
370
    25
100
AcDbLine
 10
212.9454545455
 20
347.9801610444
 30
0.0
 11
212.4454545455
 21
347.9801610444
 31
0.0
  0
LINE
  5
1D9
330
1F
100
AcDbEntity
  8
0
  6
Continuous
 62
     7
370
    25
100
AcDbLine
 10
212.4454545455
 20
339.5801610444
 30
0.0
 11
212.9454545455
 21
339.5801610444
 31
0.0
  0
LINE
  5
1DA
330
1F
100
AcDbEntity
  8
0
  6
Continuous
 62
     7
370
    25
100
AcDbLine
 10
212.4454545455
 20
347.9801610444
 30
0.0
 11
211.8454545455
 21
347.3801610444
 31
0.0
  0
LINE
  5
1DB
330
1F
100
AcDbEntity
  8
0
  6
Continuous
 62
     7
370
    25
100
AcDbLine
 10
211.8454545455
 20
340.1801610444
 30
0.0
 11
212.4454545455
 21
339.5801610444
 31
0.0
  0
LINE
  5
1DC
330
1F
100
AcDbEntity
  8
0
  6
Continuous
 62
     7
370
    25
100
AcDbLine
 10
72.7454545455
 20
339.5801610444
 30
0.0
 11
73.2454545455
 21
339.5801610444
 31
0.0
  0
LINE
  5
1DD
330
1F
100
AcDbEntity
  8
0
  6
Continuous
 62
     7
370
    25
100
AcDbLine
 10
73.2454545455
 20
347.9801610444
 30
0.0
 11
72.7454545455
 21
347.9801610444
 31
0.0
  0
LINE
  5
1DE
330
1F
100
AcDbEntity
  8
0
  6
Continuous
 62
     7
370
    25
100
AcDbLine
 10
73.2454545455
 20
339.5801610444
 30
0.0
 11
73.8454545455
 21
340.1801610444
 31
0.0
  0
LINE
  5
1DF
330
1F
100
AcDbEntity
  8
0
  6
Continuous
 62
     7
370
    25
100
AcDbLine
 10
73.8454545455
 20
347.3801610444
 30
0.0
 11
73.2454545455
 21
347.9801610444
 31
0.0
  0
LINE
  5
1E0
330
1F
100
AcDbEntity
  8
0
  6
Continuous
 62
     7
370
    25
100
AcDbLine
 10
73.8454545455
 20
350.2801610444
 30
0.0
 11
73.8454545455
 21
220.2801610444
 31
0.0
  0
LINE
  5
1E1
330
1F
100
AcDbEntity
  8
0
  6
Continuous
 62
     7
370
    25
100
AcDbLine
 10
73.8454545455
 20
350.2801610444
 30
0.0
 11
211.8454545455
 21
350.2801610444
 31
0.0
  0
LINE
  5
1E2
330
1F
100
AcDbEntity
  8
0
  6
Continuous
 62
     7
370
    25
100
AcDbLine
 10
73.8454545455
 20
220.2801610444
 30
0.0
 11
211.8454545455
 21
220.2801610444
 31
0.0
  0
LINE
  5
1E3
330
1F
100
AcDbEntity
  8
0
  6
Continuous
 62
     7
370
    25
100
AcDbLine
 10
211.8454545455
 20
350.2801610444
 30
0.0
 11
211.8454545455
 21
220.2801610444
 31
0.0
  0
LINE
  5
1E4
330
1F
100
AcDbEntity
  8
0
  6
Continuous
 62
     7
370
    25
100
AcDbLine
 10
212.4454545455
 20
347.9801610444
 30
0.0
 11
212.4454545455
 21
339.5801610444
 31
0.0
  0
LINE
  5
1E5
330
1F
100
AcDbEntity
  8
0
  6
Continuous
 62
     7
370
    25
100
AcDbLine
 10
212.9454545455
 20
347.9801610444
 30
0.0
 11
212.9454545455
 21
339.5801610444
 31
0.0
  0
LINE
  5
1E6
330
1F
100
AcDbEntity
  8
0
  6
Continuous
 62
     7
370
    25
100
AcDbLine
 10
72.7454545455
 20
339.5801610444
 30
0.0
 11
72.7454545455
 21
347.9801610444
 31
0.0
  0
LINE
  5
1E7
330
1F
100
AcDbEntity
  8
0
  6
Continuous
 62
     7
370
    25
100
AcDbLine
 10
73.2454545455
 20
339.5801610444
 30
0.0
 11
73.2454545455
 21
347.9801610444
 31
0.0
  0
LINE
  5
1E8
330
1F
100
AcDbEntity
  8
0
  6
Continuous
 62
     7
370
    25
100
AcDbLine
 10
422.3619792262
 20
120.0090909091
 30
0.0
 11
292.3619792262
 21
120.0090909091
 31
0.0
  0
LINE
  5
1E9
330
1F
100
AcDbEntity
  8
0
  6
Continuous
 62
     7
370
    25
100
AcDbLine
 10
292.3619792262
 20
120.0090909091
 30
0.0
 11
292.3619792262
 21
84.0090909091
 31
0.0
  0
LINE
  5
1EA
330
1F
100
AcDbEntity
  8
0
  6
Continuous
 62
     7
370
    25
100
AcDbLine
 10
422.3619792262
 20
84.0090909091
 30
0.0
 11
292.3619792262
 21
84.0090909091
 31
0.0
  0
LINE
  5
1EB
330
1F
100
AcDbEntity
  8
0
  6
Continuous
 62
     7
370
    25
100
AcDbLine
 10
422.3619792262
 20
120.0090909091
 30
0.0
 11
422.3619792262
 21
84.0090909091
 31
0.0
  0
LINE
  5
1EC
330
1F
100
AcDbEntity
  8
0
  6
Continuous
 62
     7
370
    25
100
AcDbLine
 10
418.0619792262
 20
102.5240909091
 30
0.0
 11
418.0619792262
 21
101.4940909091
 31
0.0
  0
LINE
  5
1ED
330
1F
100
AcDbEntity
  8
0
  6
Continuous
 62
     7
370
    25
100
AcDbLine
 10
416.7499604817
 20
102.5240909091
 30
0.0
 11
418.0619792262
 21
102.5240909091
 31
0.0
  0
ARC
  5
1EE
330
1F
100
AcDbEntity
  8
0
  6
Continuous
 62
     7
370
    25
100
AcDbCircle
 10
415.8619792262
 20
102.0090909091
 30
0.0
 40
1.026516297978197
100
AcDbArc
 50
30.1123267747
 51
59.8876732253
  0
LINE
  5
1EF
330
1F
100
AcDbEntity
  8
0
  6
Continuous
 62
     7
370
    25
100
AcDbLine
 10
416.3769792262
 20
104.2090909091
 30
0.0
 11
416.3769792262
 21
102.8970721645
 31
0.0
  0
LINE
  5
1F0
330
1F
100
AcDbEntity
  8
0
  6
Continuous
 62
     7
370
    25
100
AcDbLine
 10
415.3469792262
 20
104.2090909091
 30
0.0
 11
416.3769792262
 21
104.2090909091
 31
0.0
  0
LINE
  5
1F1
330
1F
100
AcDbEntity
  8
0
  6
Continuous
 62
     7
370
    25
100
AcDbLine
 10
415.3469792262
 20
102.8970721645
 30
0.0
 11
415.3469792262
 21
104.2090909091
 31
0.0
  0
ARC
  5
1F2
330
1F
100
AcDbEntity
  8
0
  6
Continuous
 62
     7
370
    25
100
AcDbCircle
 10
415.8619792262
 20
102.0090909091
 30
0.0
 40
1.026516297978218
100
AcDbArc
 50
120.1123267747
 51
149.8876732253
  0
LINE
  5
1F3
330
1F
100
AcDbEntity
  8
0
  6
Continuous
 62
     7
370
    25
100
AcDbLine
 10
413.6619792262
 20
102.5240909091
 30
0.0
 11
414.9739979708
 21
102.5240909091
 31
0.0
  0
LINE
  5
1F4
330
1F
100
AcDbEntity
  8
0
  6
Continuous
 62
     7
370
    25
100
AcDbLine
 10
413.6619792262
 20
101.4940909091
 30
0.0
 11
413.6619792262
 21
102.5240909091
 31
0.0
  0
LINE
  5
1F5
330
1F
100
AcDbEntity
  8
0
  6
Continuous
 62
     7
370
    25
100
AcDbLine
 10
414.9739979708
 20
101.4940909091
 30
0.0
 11
413.6619792262
 21
101.4940909091
 31
0.0
  0
ARC
  5
1F6
330
1F
100
AcDbEntity
  8
0
  6
Continuous
 62
     7
370
    25
100
AcDbCircle
 10
415.8619792262
 20
102.0090909091
 30
0.0
 40
1.026516297978206
100
AcDbArc
 50
210.1123267747
 51
239.8876732253
  0
LINE
  5
1F7
330
1F
100
AcDbEntity
  8
0
  6
Continuous
 62
     7
370
    25
100
AcDbLine
 10
415.3469792262
 20
99.8090909091
 30
0.0
 11
415.3469792262
 21
101.1211096536
 31
0.0
  0
LINE
  5
1F8
330
1F
100
AcDbEntity
  8
0
  6
Continuous
 62
     7
370
    25
100
AcDbLine
 10
416.3769792262
 20
99.8090909091
 30
0.0
 11
415.3469792262
 21
99.8090909091
 31
0.0
  0
LINE
  5
1F9
330
1F
100
AcDbEntity
  8
0
  6
Continuous
 62
     7
370
    25
100
AcDbLine
 10
416.3769792262
 20
101.1211096536
 30
0.0
 11
416.3769792262
 21
99.8090909091
 31
0.0
  0
ARC
  5
1FA
330
1F
100
AcDbEntity
  8
0
  6
Continuous
 62
     7
370
    25
100
AcDbCircle
 10
415.8619792262
 20
102.0090909091
 30
0.0
 40
1.026516297978197
100
AcDbArc
 50
300.1123267747
 51
329.8876732253
  0
LINE
  5
1FB
330
1F
100
AcDbEntity
  8
0
  6
Continuous
 62
     7
370
    25
100
AcDbLine
 10
418.0619792262
 20
101.4940909091
 30
0.0
 11
416.7499604817
 21
101.4940909091
 31
0.0
  0
CIRCLE
  5
1FC
330
1F
100
AcDbEntity
  8
0
  6
Continuous
 62
     7
370
    25
100
AcDbCircle
 10
415.8619792262
 20
102.0090909091
 30
0.0
 40
4.199999999999989
  0
LINE
  5
1FD
330
1F
100
AcDbEntity
  8
0
  6
Continuous
 62
     7
370
    25
100
AcDbLine
 10
416.3769792262
 20
102.686568584
 30
0.0
 11
416.3769792262
 21
102.8970721645
 31
0.0
  0
LINE
  5
1FE
330
1F
100
AcDbEntity
  8
0
  6
Continuous
 62
     7
370
    25
100
AcDbLine
 10
416.7499604817
 20
102.5240909091
 30
0.0
 11
416.5394569012
 21
102.5240909091
 31
0.0
  0
ARC
  5
1FF
330
1F
100
AcDbEntity
  8
0
  6
Continuous
 62
     7
370
    25
100
AcDbCircle
 10
415.8619792262
 20
102.0090909091
 30
0.0
 40
0.8509999999999963
100
AcDbArc
 50
37.2411038472
 51
52.7588961528
  0
LINE
  5
200
330
1F
100
AcDbEntity
  8
0
  6
Continuous
 62
     7
370
    25
100
AcDbLine
 10
416.3769792262
 20
101.1211096536
 30
0.0
 11
416.3769792262
 21
101.3316132342
 31
0.0
  0
ARC
  5
201
330
1F
100
AcDbEntity
  8
0
  6
Continuous
 62
     7
370
    25
100
AcDbCircle
 10
415.8619792262
 20
102.0090909091
 30
0.0
 40
0.8509999999999935
100
AcDbArc
 50
307.2411038472
 51
322.7588961528
  0
LINE
  5
202
330
1F
100
AcDbEntity
  8
0
  6
Continuous
 62
     7
370
    25
100
AcDbLine
 10
416.5394569012
 20
101.4940909091
 30
0.0
 11
416.7499604817
 21
101.4940909091
 31
0.0
  0
LINE
  5
203
330
1F
100
AcDbEntity
  8
0
  6
Continuous
 62
     7
370
    25
100
AcDbLine
 10
416.8105395993
 20
102.5240909091
 30
0.0
 11
416.8105395993
 21
101.4940909091
 31
0.0
  0
LINE
  5
204
330
1F
100
AcDbEntity
  8
0
  6
Continuous
 62
     7
370
    25
100
AcDbLine
 10
415.3469792262
 20
102.9576512822
 30
0.0
 11
416.3769792262
 21
102.9576512822
 31
0.0
  0
LINE
  5
205
330
1F
100
AcDbEntity
  8
0
  6
Continuous
 62
     7
370
    25
100
AcDbLine
 10
416.3769792262
 20
101.060530536
 30
0.0
 11
415.3469792262
 21
101.060530536
 31
0.0
  0
LINE
  5
206
330
1F
100
AcDbEntity
  8
0
  6
Continuous
 62
     7
370
    25
100
AcDbLine
 10
415.3469792262
 20
102.8970721645
 30
0.0
 11
415.3469792262
 21
102.686568584
 31
0.0
  0
ARC
  5
207
330
1F
100
AcDbEntity
  8
0
  6
Continuous
 62
     7
370
    25
100
AcDbCircle
 10
415.8619792262
 20
102.0090909091
 30
0.0
 40
0.8510000000000306
100
AcDbArc
 50
127.2411038472
 51
142.7588961528
  0
LINE
  5
208
330
1F
100
AcDbEntity
  8
0
  6
Continuous
 62
     7
370
    25
100
AcDbLine
 10
415.1845015513
 20
102.5240909091
 30
0.0
 11
414.9739979708
 21
102.5240909091
 31
0.0
  0
LINE
  5
209
330
1F
100
AcDbEntity
  8
0
  6
Continuous
 62
     7
370
    25
100
AcDbLine
 10
415.3469792262
 20
101.3316132342
 30
0.0
 11
415.3469792262
 21
101.1211096536
 31
0.0
  0
LINE
  5
20A
330
1F
100
AcDbEntity
  8
0
  6
Continuous
 62
     7
370
    25
100
AcDbLine
 10
414.9739979708
 20
101.4940909091
 30
0.0
 11
415.1845015513
 21
101.4940909091
 31
0.0
  0
ARC
  5
20B
330
1F
100
AcDbEntity
  8
0
  6
Continuous
 62
     7
370
    25
100
AcDbCircle
 10
415.8619792262
 20
102.0090909091
 30
0.0
 40
0.8510000000000194
100
AcDbArc
 50
217.2411038472
 51
232.7588961528
  0
LINE
  5
20C
330
1F
100
AcDbEntity
  8
0
  6
Continuous
 62
     7
370
    25
100
AcDbLine
 10
414.9134188532
 20
101.4940909091
 30
0.0
 11
414.9134188532
 21
102.5240909091
 31
0.0
  0
ARC
  5
20D
330
1F
100
AcDbEntity
  8
0
  6
Continuous
 62
     7
370
    25
100
AcDbCircle
 10
415.8619792262
 20
102.0090909091
 30
0.0
 40
0.8510000000000194
100
AcDbArc
 50
232.7588961528
 51
307.2411038472
  0
ARC
  5
20E
330
1F
100
AcDbEntity
  8
0
  6
Continuous
 62
     7
370
    25
100
AcDbCircle
 10
415.8619792262
 20
102.0090909091
 30
0.0
 40
0.8509999999999935
100
AcDbArc
 50
322.7588961528
 51
37.2411038472
  0
ARC
  5
20F
330
1F
100
AcDbEntity
  8
0
  6
Continuous
 62
     7
370
    25
100
AcDbCircle
 10
415.8619792262
 20
102.0090909091
 30
0.0
 40
0.8509999999999935
100
AcDbArc
 50
142.7588961528
 51
217.2411038472
  0
ARC
  5
210
330
1F
100
AcDbEntity
  8
0
  6
Continuous
 62
     7
370
    25
100
AcDbCircle
 10
415.8619792262
 20
102.0090909091
 30
0.0
 40
0.8510000000000306
100
AcDbArc
 50
52.7588961528
 51
127.2411038472
  0
INSERT
  5
21C
330
1F
100
AcDbEntity
  8
0
  6
Continuous
 62
     7
370
    18
100
AcDbBlockReference
  2
SW_CENTERMARKSYMBOL_0
 10
415.8619792262
 20
102.0090909091
 30
0.0
  0
ENDSEC
  0
SECTION
  2
OBJECTS
  0
DICTIONARY
  5
C
330
0
100
AcDbDictionary
281
     1
  3
ACAD_GROUP
350
D
  3
ACAD_LAYOUT
350
1A
  3
ACAD_MLINESTYLE
350
17
  3
ACAD_PLOTSETTINGS
350
19
  3
ACAD_PLOTSTYLENAME
350
E
  3
ACAD_SCALELIST
350
47
  3
DWGPROPS
350
21D
  0
DICTIONARY
  5
D
102
{ACAD_REACTORS
330
C
102
}
330
C
100
AcDbDictionary
281
     1
  0
DICTIONARY
  5
1A
102
{ACAD_REACTORS
330
C
102
}
330
C
100
AcDbDictionary
281
     1
  3
Layout1
350
1E
  3
Layout2
350
26
  3
Model
350
22
  0
DICTIONARY
  5
17
102
{ACAD_REACTORS
330
C
102
}
330
C
100
AcDbDictionary
281
     1
  3
Standard
350
18
  0
DICTIONARY
  5
19
102
{ACAD_REACTORS
330
C
102
}
330
C
100
AcDbDictionary
281
     1
  0
ACDBDICTIONARYWDFLT
  5
E
102
{ACAD_REACTORS
330
C
102
}
330
C
100
AcDbDictionary
281
     1
  3
Normal
350
F
100
AcDbDictionaryWithDefault
340
F
  0
DICTIONARY
  5
47
102
{ACAD_REACTORS
330
C
102
}
330
C
100
AcDbDictionary
281
     1
  3
A0
350
48
  3
A1
350
49
  3
A2
350
4A
  3
A3
350
4B
  3
A4
350
4C
  3
A5
350
4D
  3
A6
350
4E
  3
A7
350
4F
  3
A8
350
50
  3
A9
350
51
  3
B0
350
52
  3
B1
350
53
  3
B2
350
54
  3
B3
350
55
  3
B4
350
56
  3
B5
350
57
  3
B6
350
58
  0
XRECORD
  5
21D
102
{ACAD_REACTORS
330
C
102
}
330
C
100
AcDbXrecord
280
     1
  1
DWGPROPS COOKIE
  2

  3

  4

  6

  7

  8
SKriemadi
  9

300
=
301
=
302
=
303
=
304
=
305
=
306
=
307
=
308
=
309
=
 40
0.0
 41
2460088.438958241
 42
2460088.4389586
  1

 90
        0
  0
LAYOUT
  5
1E
102
{ACAD_REACTORS
330
1A
102
}
330
1A
100
AcDbPlotSettings
  1

  2
none_device
  4

  6

 40
0.0
 41
0.0
 42
0.0
 43
0.0
 44
0.0
 45
0.0
 46
0.0
 47
0.0
 48
0.0
 49
0.0
140
0.0
141
0.0
142
1.0
143
1.0
 70
   688
 72
     1
 73
     0
 74
     5
  7

 75
    16
147
1.0
148
0.0
149
0.0
100
AcDbLayout
  1
Layout1
 70
     1
 71
     1
 10
0.0
 20
0.0
 11
420.0
 21
297.0
 12
0.0
 22
0.0
 32
0.0
 14
1.0000000000E+20
 24
1.0000000000E+20
 34
1.0000000000E+20
 15
-1.0000000000E+20
 25
-1.0000000000E+20
 35
-1.0000000000E+20
146
0.0
 13
0.0
 23
0.0
 33
0.0
 16
1.0
 26
0.0
 36
0.0
 17
0.0
 27
1.0
 37
0.0
 76
     0
330
1B
  0
LAYOUT
  5
26
102
{ACAD_REACTORS
330
1A
102
}
330
1A
100
AcDbPlotSettings
  1

  2
none_device
  4

  6

 40
0.0
 41
0.0
 42
0.0
 43
0.0
 44
0.0
 45
0.0
 46
0.0
 47
0.0
 48
0.0
 49
0.0
140
0.0
141
0.0
142
1.0
143
1.0
 70
   688
 72
     1
 73
     0
 74
     5
  7

 75
    16
147
1.0
148
0.0
149
0.0
100
AcDbLayout
  1
Layout2
 70
     1
 71
     2
 10
0.0
 20
0.0
 11
0.0
 21
0.0
 12
0.0
 22
0.0
 32
0.0
 14
0.0
 24
0.0
 34
0.0
 15
0.0
 25
0.0
 35
0.0
146
0.0
 13
0.0
 23
0.0
 33
0.0
 16
1.0
 26
0.0
 36
0.0
 17
0.0
 27
1.0
 37
0.0
 76
     0
330
23
  0
LAYOUT
  5
22
102
{ACAD_REACTORS
330
1A
102
}
330
1A
100
AcDbPlotSettings
  1

  2
none_device
  4
Letter_(8.50_x_11.00_Inches)
  6

 40
6.35
 41
6.35
 42
6.35000508
 43
6.35000508
 44
215.9
 45
279.4
 46
0.0
 47
0.0
 48
0.0
 49
0.0
140
0.0
141
0.0
142
1.0
143
1.0
 70
  1712
 72
     1
 73
     0
 74
     0
  7

 75
     0
147
1.0
148
0.0
149
0.0
100
AcDbLayout
  1
Model
 70
     1
 71
     0
 10
0.0
 20
0.0
 11
594.0
 21
420.0
 12
0.0
 22
0.0
 32
0.0
 14
0.0
 24
0.0
 34
0.0
 15
594.0
 25
420.0
 35
0.0
146
0.0
 13
0.0
 23
0.0
 33
0.0
 16
1.0
 26
0.0
 36
0.0
 17
0.0
 27
1.0
 37
0.0
 76
     0
330
1F
331
29
  0
MLINESTYLE
  5
18
102
{ACAD_REACTORS
330
17
102
}
330
17
100
AcDbMlineStyle
  2
Standard
 70
     0
  3

 62
   256
 51
90.0
 52
90.0
 71
     2
 49
0.5
 62
   256
  6
BYLAYER
 49
-0.5
 62
   256
  6
BYLAYER
  0
ACDBPLACEHOLDER
  5
F
102
{ACAD_REACTORS
330
E
102
}
330
E
  0
SCALE
  5
48
102
{ACAD_REACTORS
330
47
102
}
330
47
100
AcDbScale
 70
     0
300
1:1
140
1.0
141
1.0
290
     1
  0
SCALE
  5
49
102
{ACAD_REACTORS
330
47
102
}
330
47
100
AcDbScale
 70
     0
300
1:2
140
1.0
141
2.0
290
     0
  0
SCALE
  5
4A
102
{ACAD_REACTORS
330
47
102
}
330
47
100
AcDbScale
 70
     0
300
1:4
140
1.0
141
4.0
290
     0
  0
SCALE
  5
4B
102
{ACAD_REACTORS
330
47
102
}
330
47
100
AcDbScale
 70
     0
300
1:5
140
1.0
141
5.0
290
     0
  0
SCALE
  5
4C
102
{ACAD_REACTORS
330
47
102
}
330
47
100
AcDbScale
 70
     0
300
1:8
140
1.0
141
8.0
290
     0
  0
SCALE
  5
4D
102
{ACAD_REACTORS
330
47
102
}
330
47
100
AcDbScale
 70
     0
300
1:10
140
1.0
141
10.0
290
     0
  0
SCALE
  5
4E
102
{ACAD_REACTORS
330
47
102
}
330
47
100
AcDbScale
 70
     0
300
1:16
140
1.0
141
16.0
290
     0
  0
SCALE
  5
4F
102
{ACAD_REACTORS
330
47
102
}
330
47
100
AcDbScale
 70
     0
300
1:20
140
1.0
141
20.0
290
     0
  0
SCALE
  5
50
102
{ACAD_REACTORS
330
47
102
}
330
47
100
AcDbScale
 70
     0
300
1:30
140
1.0
141
30.0
290
     0
  0
SCALE
  5
51
102
{ACAD_REACTORS
330
47
102
}
330
47
100
AcDbScale
 70
     0
300
1:40
140
1.0
141
40.0
290
     0
  0
SCALE
  5
52
102
{ACAD_REACTORS
330
47
102
}
330
47
100
AcDbScale
 70
     0
300
1:50
140
1.0
141
50.0
290
     0
  0
SCALE
  5
53
102
{ACAD_REACTORS
330
47
102
}
330
47
100
AcDbScale
 70
     0
300
1:100
140
1.0
141
100.0
290
     0
  0
SCALE
  5
54
102
{ACAD_REACTORS
330
47
102
}
330
47
100
AcDbScale
 70
     0
300
2:1
140
2.0
141
1.0
290
     0
  0
SCALE
  5
55
102
{ACAD_REACTORS
330
47
102
}
330
47
100
AcDbScale
 70
     0
300
4:1
140
4.0
141
1.0
290
     0
  0
SCALE
  5
56
102
{ACAD_REACTORS
330
47
102
}
330
47
100
AcDbScale
 70
     0
300
8:1
140
8.0
141
1.0
290
     0
  0
SCALE
  5
57
102
{ACAD_REACTORS
330
47
102
}
330
47
100
AcDbScale
 70
     0
300
10:1
140
10.0
141
1.0
290
     0
  0
SCALE
  5
58
102
{ACAD_REACTORS
330
47
102
}
330
47
100
AcDbScale
 70
     0
300
100:1
140
100.0
141
1.0
290
     0
  0
ENDSEC
  0
EOF
