  0
SECTION
  2
HEADER
  9
$ACADVER
  1
AC1015
  9
$ACADMAINTVER
 70
     6
  9
$DWGCODEPAGE
  3
ANSI_1253
  9
$INSBASE
 10
0.0
 20
0.0
 30
0.0
  9
$EXTMIN
 10
0.0
 20
0.0
 30
0.0
  9
$EXTMAX
 10
594.0
 20
420.0
 30
0.0
  9
$LIMMIN
 10
0.0
 20
0.0
  9
$LIMMAX
 10
594.0
 20
420.0
  9
$ORTHOMODE
 70
     0
  9
$REGENMODE
 70
     1
  9
$FILLMODE
 70
     1
  9
$QTEXTMODE
 70
     0
  9
$MIRRTEXT
 70
     1
  9
$LTSCALE
 40
2.0
  9
$ATTMODE
 70
     1
  9
$TEXTSIZE
 40
6.0
  9
$TRACEWID
 40
1.0
  9
$TEXTSTYLE
  7
Standard
  9
$CLAYER
  8
0
  9
$CELTYPE
  6
ByLayer
  9
$CECOLOR
 62
   256
  9
$CELTSCALE
 40
1.0
  9
$DISPSILH
 70
     0
  9
$DIMSCALE
 40
1.0
  9
$DIMASZ
 40
6.604
  9
$DIMEXO
 40
1.0
  9
$DIMDLI
 40
3.75
  9
$DIMRND
 40
0.0
  9
$DIMDLE
 40
0.0
  9
$DIMEXE
 40
1.0
  9
$DIMTP
 40
0.0
  9
$DIMTM
 40
0.0
  9
$DIMTXT
 40
6.0
  9
$DIMCEN
 40
2.5
  9
$DIMTSZ
 40
0.0
  9
$DIMTOL
 70
     0
  9
$DIMLIM
 70
     0
  9
$DIMTIH
 70
     1
  9
$DIMTOH
 70
     1
  9
$DIMSE1
 70
     0
  9
$DIMSE2
 70
     0
  9
$DIMTAD
 70
     1
  9
$DIMZIN
 70
     1
  9
$DIMBLK
  1

  9
$DIMASO
 70
     1
  9
$DIMSHO
 70
     1
  9
$DIMPOST
  1

  9
$DIMAPOST
  1

  9
$DIMALT
 70
     0
  9
$DIMALTD
 70
     3
  9
$DIMALTF
 40
0.0393700787
  9
$DIMLFAC
 40
1.0
  9
$DIMTOFL
 70
     1
  9
$DIMTVP
 40
0.0
  9
$DIMTIX
 70
     0
  9
$DIMSOXD
 70
     0
  9
$DIMSAH
 70
     0
  9
$DIMBLK1
  1

  9
$DIMBLK2
  1

  9
$DIMSTYLE
  2
ISO-25
  9
$DIMCLRD
 70
     0
  9
$DIMCLRE
 70
     0
  9
$DIMCLRT
 70
     0
  9
$DIMTFAC
 40
1.0
  9
$DIMGAP
 40
3.048
  9
$DIMJUST
 70
     0
  9
$DIMSD1
 70
     0
  9
$DIMSD2
 70
     0
  9
$DIMTOLJ
 70
     0
  9
$DIMTZIN
 70
     1
  9
$DIMALTZ
 70
     0
  9
$DIMALTTZ
 70
     0
  9
$DIMUPT
 70
     0
  9
$DIMDEC
 70
     1
  9
$DIMTDEC
 70
     1
  9
$DIMALTU
 70
     2
  9
$DIMALTTD
 70
     3
  9
$DIMTXSTY
  7
Standard
  9
$DIMAUNIT
 70
     0
  9
$DIMADEC
 70
     1
  9
$DIMALTRND
 40
0.0
  9
$DIMAZIN
 70
     0
  9
$DIMDSEP
 70
    44
  9
$DIMATFIT
 70
     3
  9
$DIMFRAC
 70
     0
  9
$DIMLDRBLK
  1

  9
$DIMLUNIT
 70
     2
  9
$DIMLWD
 70
    -2
  9
$DIMLWE
 70
    -2
  9
$DIMTMOVE
 70
     0
  9
$LUNITS
 70
     2
  9
$LUPREC
 70
     3
  9
$SKETCHINC
 40
1.0
  9
$FILLETRAD
 40
0.0
  9
$AUNITS
 70
     0
  9
$AUPREC
 70
     2
  9
$MENU
  1
.
  9
$ELEVATION
 40
0.0
  9
$PELEVATION
 40
0.0
  9
$THICKNESS
 40
0.0
  9
$LIMCHECK
 70
     0
  9
$CHAMFERA
 40
0.0
  9
$CHAMFERB
 40
0.0
  9
$CHAMFERC
 40
0.0
  9
$CHAMFERD
 40
0.0
  9
$SKPOLY
 70
     0
  9
$TDCREATE
 40
2460088.55581412
  9
$TDUCREATE
 40
2460088.43081412
  9
$TDUPDATE
 40
2460088.555814467
  9
$TDUUPDATE
 40
2460088.430814467
  9
$TDINDWG
 40
0.0000000116
  9
$TDUSRTIMER
 40
0.0000000116
  9
$USRTIMER
 70
     1
  9
$ANGBASE
 50
0.0
  9
$ANGDIR
 70
     0
  9
$PDMODE
 70
     0
  9
$PDSIZE
 40
-1.0
  9
$PLINEWID
 40
0.0
  9
$SPLFRAME
 70
     0
  9
$SPLINETYPE
 70
     6
  9
$SPLINESEGS
 70
     8
  9
$HANDSEED
  5
153
  9
$SURFTAB1
 70
     6
  9
$SURFTAB2
 70
     6
  9
$SURFTYPE
 70
     6
  9
$SURFU
 70
     6
  9
$SURFV
 70
     6
  9
$UCSBASE
  2

  9
$UCSNAME
  2

  9
$UCSORG
 10
0.0
 20
0.0
 30
0.0
  9
$UCSXDIR
 10
1.0
 20
0.0
 30
0.0
  9
$UCSYDIR
 10
0.0
 20
1.0
 30
0.0
  9
$UCSORTHOREF
  2

  9
$UCSORTHOVIEW
 70
     0
  9
$UCSORGTOP
 10
0.0
 20
0.0
 30
0.0
  9
$UCSORGBOTTOM
 10
0.0
 20
0.0
 30
0.0
  9
$UCSORGLEFT
 10
0.0
 20
0.0
 30
0.0
  9
$UCSORGRIGHT
 10
0.0
 20
0.0
 30
0.0
  9
$UCSORGFRONT
 10
0.0
 20
0.0
 30
0.0
  9
$UCSORGBACK
 10
0.0
 20
0.0
 30
0.0
  9
$PUCSBASE
  2

  9
$PUCSNAME
  2

  9
$PUCSORG
 10
0.0
 20
0.0
 30
0.0
  9
$PUCSXDIR
 10
1.0
 20
0.0
 30
0.0
  9
$PUCSYDIR
 10
0.0
 20
1.0
 30
0.0
  9
$PUCSORTHOREF
  2

  9
$PUCSORTHOVIEW
 70
     0
  9
$PUCSORGTOP
 10
0.0
 20
0.0
 30
0.0
  9
$PUCSORGBOTTOM
 10
0.0
 20
0.0
 30
0.0
  9
$PUCSORGLEFT
 10
0.0
 20
0.0
 30
0.0
  9
$PUCSORGRIGHT
 10
0.0
 20
0.0
 30
0.0
  9
$PUCSORGFRONT
 10
0.0
 20
0.0
 30
0.0
  9
$PUCSORGBACK
 10
0.0
 20
0.0
 30
0.0
  9
$USERI1
 70
     0
  9
$USERI2
 70
     0
  9
$USERI3
 70
     0
  9
$USERI4
 70
     0
  9
$USERI5
 70
     0
  9
$USERR1
 40
0.0
  9
$USERR2
 40
0.0
  9
$USERR3
 40
0.0
  9
$USERR4
 40
0.0
  9
$USERR5
 40
0.0
  9
$WORLDVIEW
 70
     1
  9
$SHADEDGE
 70
     3
  9
$SHADEDIF
 70
    70
  9
$TILEMODE
 70
     1
  9
$MAXACTVP
 70
    64
  9
$PINSBASE
 10
0.0
 20
0.0
 30
0.0
  9
$PLIMCHECK
 70
     0
  9
$PEXTMIN
 10
1.0000000000E+20
 20
1.0000000000E+20
 30
1.0000000000E+20
  9
$PEXTMAX
 10
-1.0000000000E+20
 20
-1.0000000000E+20
 30
-1.0000000000E+20
  9
$PLIMMIN
 10
0.0
 20
0.0
  9
$PLIMMAX
 10
420.0
 20
297.0
  9
$UNITMODE
 70
     0
  9
$VISRETAIN
 70
     1
  9
$PLINEGEN
 70
     0
  9
$PSLTSCALE
 70
     1
  9
$TREEDEPTH
 70
  3020
  9
$CMLSTYLE
  2
Standard
  9
$CMLJUST
 70
     0
  9
$CMLSCALE
 40
20.0
  9
$PROXYGRAPHICS
 70
     1
  9
$MEASUREMENT
 70
     1
  9
$CELWEIGHT
370
    -1
  9
$ENDCAPS
280
     0
  9
$JOINSTYLE
280
     0
  9
$LWDISPLAY
290
     1
  9
$INSUNITS
 70
     4
  9
$HYPERLINKBASE
  1

  9
$STYLESHEET
  1

  9
$XEDIT
290
     1
  9
$CEPSNTYPE
380
     0
  9
$PSTYLEMODE
290
     1
  9
$FINGERPRINTGUID
  2
{f0297bbd-6902-43da-916a-a491ce9f5940}
  9
$VERSIONGUID
  2
{FAEB1C32-E019-11D5-929B-00C0DF256EC4}
  9
$EXTNAMES
290
     1
  9
$PSVPSCALE
 40
0.0
  9
$OLESTARTUP
290
     0
  0
ENDSEC
  0
SECTION
  2
CLASSES
  0
CLASS
  1
ACDBDICTIONARYWDFLT
  2
AcDbDictionaryWithDefault
  3
ObjectDBX Classes
 90
        0
280
     0
281
     0
  0
CLASS
  1
VISUALSTYLE
  2
AcDbVisualStyle
  3
ObjectDBX Classes
 90
     4095
280
     0
281
     0
  0
CLASS
  1
MATERIAL
  2
AcDbMaterial
  3
ObjectDBX Classes
 90
     1153
280
     0
281
     0
  0
CLASS
  1
SCALE
  2
AcDbScale
  3
ObjectDBX Classes
 90
     1153
280
     0
281
     0
  0
CLASS
  1
TABLESTYLE
  2
AcDbTableStyle
  3
ObjectDBX Classes
 90
     4095
280
     0
281
     0
  0
CLASS
  1
MLEADERSTYLE
  2
AcDbMLeaderStyle
  3
ACDB_MLEADERSTYLE_CLASS
 90
     4095
280
     0
281
     0
  0
CLASS
  1
SUN
  2
AcDbSun
  3
SCENEOE
 90
     1153
280
     0
281
     0
  0
CLASS
  1
ACDBPLACEHOLDER
  2
AcDbPlaceHolder
  3
ObjectDBX Classes
 90
        0
280
     0
281
     0
  0
CLASS
  1
LAYOUT
  2
AcDbLayout
  3
ObjectDBX Classes
 90
        0
280
     0
281
     0
  0
ENDSEC
  0
SECTION
  2
TABLES
  0
TABLE
  2
VPORT
  5
8
330
0
100
AcDbSymbolTable
 70
     1
  0
VPORT
  5
29
330
8
100
AcDbSymbolTableRecord
100
AcDbViewportTableRecord
  2
*Active
 70
     0
 10
0.0
 20
0.0
 11
1.0
 21
1.0
 12
297.0
 22
210.0
 13
0.0
 23
0.0
 14
10.0
 24
10.0
 15
10.0
 25
10.0
 16
0.0
 26
0.0
 36
1.0
 17
0.0
 27
0.0
 37
0.0
 40
420.0
 41
1.4142857143
 42
50.0
 43
0.0
 44
0.0
 50
0.0
 51
0.0
 71
     0
 72
  2000
 73
     1
 74
     3
 75
     0
 76
     0
 77
     0
 78
     0
281
     0
 65
     1
110
0.0
120
0.0
130
0.0
111
1.0
121
0.0
131
0.0
112
0.0
122
1.0
132
0.0
 79
     0
146
0.0
  0
ENDTAB
  0
TABLE
  2
LTYPE
  5
5
330
0
100
AcDbSymbolTable
 70
     6
  0
LTYPE
  5
14
330
5
100
AcDbSymbolTableRecord
100
AcDbLinetypeTableRecord
  2
ByBlock
 70
     0
  3

 72
    65
 73
     0
 40
0.0
  0
LTYPE
  5
15
330
5
100
AcDbSymbolTableRecord
100
AcDbLinetypeTableRecord
  2
ByLayer
 70
     0
  3

 72
    65
 73
     0
 40
0.0
  0
LTYPE
  5
16
330
5
100
AcDbSymbolTableRecord
100
AcDbLinetypeTableRecord
  2
Continuous
 70
     0
  3
Solid line
 72
    65
 73
     0
 40
0.0
  0
LTYPE
  5
5E
330
5
100
AcDbSymbolTableRecord
100
AcDbLinetypeTableRecord
  2
HIDDEN
 70
     0
  3
Hidden __ __ __ __ __ __ __ __ __ __ __ __ __ __
 72
    65
 73
     2
 40
1.905
 49
1.27
 74
     0
 49
-0.635
 74
     0
  0
LTYPE
  5
5F
330
5
100
AcDbSymbolTableRecord
100
AcDbLinetypeTableRecord
  2
PHANTOM
 70
     0
  3
Phantom ______  __  __  ______  __  __  ______
 72
    65
 73
     6
 40
12.7
 49
6.35
 74
     0
 49
-1.27
 74
     0
 49
1.27
 74
     0
 49
-1.27
 74
     0
 49
1.27
 74
     0
 49
-1.27
 74
     0
  0
LTYPE
  5
60
330
5
100
AcDbSymbolTableRecord
100
AcDbLinetypeTableRecord
  2
CENTER
 70
     0
  3
Center ____ _ ____ _ ____ _ ____ _ ____ _ ____
 72
    65
 73
     4
 40
10.16
 49
6.35
 74
     0
 49
-1.27
 74
     0
 49
1.27
 74
     0
 49
-1.27
 74
     0
  0
LTYPE
  5
61
330
5
100
AcDbSymbolTableRecord
100
AcDbLinetypeTableRecord
  2
CENTERX2
 70
     0
  3
Center (2x) ________  __  ________  __  _____
 72
    65
 73
     4
 40
20.32
 49
12.7
 74
     0
 49
-2.54
 74
     0
 49
2.54
 74
     0
 49
-2.54
 74
     0
  0
LTYPE
  5
62
330
5
100
AcDbSymbolTableRecord
100
AcDbLinetypeTableRecord
  2
DOT2
 70
     0
  3
Dot (.5x) ........................................
 72
    65
 73
     2
 40
0.635
 49
0.0
 74
     0
 49
-0.635
 74
     0
  0
ENDTAB
  0
TABLE
  2
LAYER
  5
2
330
0
100
AcDbSymbolTable
 70
     1
  0
LAYER
  5
10
330
2
100
AcDbSymbolTableRecord
100
AcDbLayerTableRecord
  2
0
 70
     0
 62
     7
  6
Continuous
370
    -3
390
F
  0
ENDTAB
  0
TABLE
  2
STYLE
  5
3
330
0
100
AcDbSymbolTable
 70
     1
  0
STYLE
  5
11
330
3
100
AcDbSymbolTableRecord
100
AcDbTextStyleTableRecord
  2
Standard
 70
     0
 40
0.0
 41
1.0
 50
0.0
 71
     0
 42
6.0
  3
txt
  4

  0
ENDTAB
  0
TABLE
  2
VIEW
  5
6
330
0
100
AcDbSymbolTable
 70
     0
  0
ENDTAB
  0
TABLE
  2
UCS
  5
7
330
0
100
AcDbSymbolTable
 70
     0
  0
ENDTAB
  0
TABLE
  2
APPID
  5
9
330
0
100
AcDbSymbolTable
 70
     1
  0
APPID
  5
12
330
9
100
AcDbSymbolTableRecord
100
AcDbRegAppTableRecord
  2
ACAD
 70
     0
  0
ENDTAB
  0
TABLE
  2
DIMSTYLE
  5
A
330
0
100
AcDbSymbolTable
 70
     1
100
AcDbDimStyleTable
  0
DIMSTYLE
105
27
330
A
100
AcDbSymbolTableRecord
100
AcDbDimStyleTableRecord
  2
ISO-25
 70
     0
 41
2.5
 42
0.625
 43
3.75
 44
1.25
 73
     0
 74
     0
 77
     1
 78
     8
140
2.5
141
2.5
143
0.0393700787
147
0.625
171
     3
172
     1
178
     0
271
     2
272
     2
274
     3
278
    44
283
     0
284
     8
340
11
  0
ENDTAB
  0
TABLE
  2
BLOCK_RECORD
  5
1
330
0
100
AcDbSymbolTable
 70
     3
  0
BLOCK_RECORD
  5
1F
330
1
100
AcDbSymbolTableRecord
100
AcDbBlockTableRecord
  2
*Model_Space
340
22
  0
BLOCK_RECORD
  5
1B
330
1
100
AcDbSymbolTableRecord
100
AcDbBlockTableRecord
  2
*Paper_Space
340
1E
  0
BLOCK_RECORD
  5
23
330
1
100
AcDbSymbolTableRecord
100
AcDbBlockTableRecord
  2
*Paper_Space0
340
26
  0
BLOCK_RECORD
  5
63
330
1
100
AcDbSymbolTableRecord
100
AcDbBlockTableRecord
  2
Block1
340
0
  0
BLOCK_RECORD
  5
146
330
1
100
AcDbSymbolTableRecord
100
AcDbBlockTableRecord
  2
SW_CENTERMARKSYMBOL_0
340
0
102
{BLKREFS
331
151
102
}
  0
ENDTAB
  0
ENDSEC
  0
SECTION
  2
BLOCKS
  0
BLOCK
  5
20
330
1F
100
AcDbEntity
  8
0
100
AcDbBlockBegin
  2
*Model_Space
 70
     0
 10
0.0
 20
0.0
 30
0.0
  3
*Model_Space
  1

  0
ENDBLK
  5
21
330
1F
100
AcDbEntity
  8
0
100
AcDbBlockEnd
  0
BLOCK
  5
1C
330
1B
100
AcDbEntity
 67
     1
  8
0
100
AcDbBlockBegin
  2
*Paper_Space
 70
     0
 10
0.0
 20
0.0
 30
0.0
  3
*Paper_Space
  1

  0
ENDBLK
  5
1D
330
1B
100
AcDbEntity
 67
     1
  8
0
100
AcDbBlockEnd
  0
BLOCK
  5
24
330
23
100
AcDbEntity
  8
0
100
AcDbBlockBegin
  2
*Paper_Space0
 70
     0
 10
0.0
 20
0.0
 30
0.0
  3
*Paper_Space0
  1

  0
ENDBLK
  5
25
330
23
100
AcDbEntity
  8
0
100
AcDbBlockEnd
  0
BLOCK
  5
64
330
63
100
AcDbEntity
  8
0
100
AcDbBlockBegin
  2
Block1
 70
     0
 10
0.0
 20
0.0
 30
0.0
  3
Block1
  1

  0
CIRCLE
  5
66
330
63
100
AcDbEntity
  8
0
  6
Continuous
 62
     7
370
    18
100
AcDbCircle
 10
12.4961400521
 20
0.0
 30
0.0
 40
3.976565042212953
  0
CIRCLE
  5
67
330
63
100
AcDbEntity
  8
0
  6
Continuous
 62
     7
370
    18
100
AcDbCircle
 10
12.4961400521
 20
0.0
 30
0.0
 40
1.896552315501957
  0
LINE
  5
68
330
63
100
AcDbEntity
  8
0
  6
Continuous
 62
     7
370
    18
100
AcDbLine
 10
-6.4757930526
 20
3.692737301
 30
0.0
 11
-6.4757930526
 21
-3.9765650422
 31
0.0
  0
LINE
  5
69
330
63
100
AcDbEntity
  8
0
  6
Continuous
 62
     7
370
    18
100
AcDbLine
 10
-6.4757930526
 20
-3.9765650422
 30
0.0
 11
6.5839562473
 21
-1.8965523155
 31
0.0
  0
LINE
  5
6A
330
63
100
AcDbEntity
  8
0
  6
Continuous
 62
     7
370
    18
100
AcDbLine
 10
6.5839562473
 20
-1.8965523155
 30
0.0
 11
6.5839562473
 21
1.8663674881
 31
0.0
  0
LINE
  5
6B
330
63
100
AcDbEntity
  8
0
  6
Continuous
 62
     7
370
    18
100
AcDbLine
 10
6.5839562473
 20
1.8663674881
 30
0.0
 11
-6.4757930526
 21
3.692737301
 31
0.0
  0
ENDBLK
  5
65
330
63
100
AcDbEntity
  8
0
100
AcDbBlockEnd
  0
BLOCK
  5
147
330
146
100
AcDbEntity
  8
0
100
AcDbBlockBegin
  2
SW_CENTERMARKSYMBOL_0
 70
     0
 10
0.0
 20
0.0
 30
0.0
  3
SW_CENTERMARKSYMBOL_0
  1

  0
LINE
  5
149
330
146
100
AcDbEntity
  8
0
  6
Continuous
 62
     0
370
    18
100
AcDbLine
 10
0.0
 20
0.0
 30
0.0
 11
0.0
 21
2.5
 31
0.0
  0
LINE
  5
14A
330
146
100
AcDbEntity
  8
0
  6
Continuous
 62
     0
370
    18
100
AcDbLine
 10
0.0
 20
0.0
 30
0.0
 11
-2.5
 21
0.0
 31
0.0
  0
LINE
  5
14B
330
146
100
AcDbEntity
  8
0
  6
Continuous
 62
     0
370
    18
100
AcDbLine
 10
0.0
 20
0.0
 30
0.0
 11
0.0
 21
-2.5
 31
0.0
  0
LINE
  5
14C
330
146
100
AcDbEntity
  8
0
  6
Continuous
 62
     0
370
    18
100
AcDbLine
 10
0.0
 20
0.0
 30
0.0
 11
2.5
 21
0.0
 31
0.0
  0
LINE
  5
14D
330
146
100
AcDbEntity
  8
0
  6
Continuous
 62
     0
370
    18
100
AcDbLine
 10
0.0
 20
2.5
 30
0.0
 11
0.0
 21
4.75
 31
0.0
  0
LINE
  5
14E
330
146
100
AcDbEntity
  8
0
  6
Continuous
 62
     0
370
    18
100
AcDbLine
 10
-2.5
 20
0.0
 30
0.0
 11
-4.75
 21
0.0
 31
0.0
  0
LINE
  5
14F
330
146
100
AcDbEntity
  8
0
  6
Continuous
 62
     0
370
    18
100
AcDbLine
 10
0.0
 20
-2.5
 30
0.0
 11
0.0
 21
-4.75
 31
0.0
  0
LINE
  5
150
330
146
100
AcDbEntity
  8
0
  6
Continuous
 62
     0
370
    18
100
AcDbLine
 10
2.5
 20
0.0
 30
0.0
 11
4.75
 21
0.0
 31
0.0
  0
ENDBLK
  5
148
330
146
100
AcDbEntity
  8
0
100
AcDbBlockEnd
  0
ENDSEC
  0
SECTION
  2
ENTITIES
  0
LINE
  5
6C
330
1F
100
AcDbEntity
  8
0
  6
Continuous
 62
     7
370
    25
100
AcDbLine
 10
167.595
 20
172.2
 30
0.0
 11
167.095
 21
172.2
 31
0.0
  0
LINE
  5
6D
330
1F
100
AcDbEntity
  8
0
  6
Continuous
 62
     7
370
    25
100
AcDbLine
 10
167.095
 20
163.8
 30
0.0
 11
167.595
 21
163.8
 31
0.0
  0
LINE
  5
6E
330
1F
100
AcDbEntity
  8
0
  6
Continuous
 62
     7
370
    25
100
AcDbLine
 10
167.095
 20
172.2
 30
0.0
 11
166.645
 21
171.75
 31
0.0
  0
LINE
  5
6F
330
1F
100
AcDbEntity
  8
0
  6
Continuous
 62
     7
370
    25
100
AcDbLine
 10
166.645
 20
164.25
 30
0.0
 11
167.095
 21
163.8
 31
0.0
  0
LWPOLYLINE
  5
70
330
1F
100
AcDbEntity
  8
0
  6
Continuous
 62
     7
370
    25
100
AcDbPolyline
 90
        3
 70
   128
 43
0.0
 10
164.645
 20
170.0135751899
 10
164.578803578
 20
170.0048152733
 10
164.4807864376
 20
170.0
  0
LWPOLYLINE
  5
71
330
1F
100
AcDbEntity
  8
0
  6
Continuous
 62
     7
370
    25
100
AcDbPolyline
 90
        3
 70
   128
 43
0.0
 10
164.4807864376
 20
166.0
 10
164.578803578
 20
165.9951847267
 10
164.645
 20
165.9864248101
  0
LINE
  5
72
330
1F
100
AcDbEntity
  8
0
  6
Continuous
 62
     7
370
    25
100
AcDbLine
 10
164.4807864376
 20
170.0
 30
0.0
 11
163.895736699
 21
170.0
 31
0.0
  0
LINE
  5
73
330
1F
100
AcDbEntity
  8
0
  6
Continuous
 62
     7
370
    25
100
AcDbLine
 10
163.8957365788
 20
166.0
 30
0.0
 11
164.4807864376
 21
166.0
 31
0.0
  0
LINE
  5
74
330
1F
100
AcDbEntity
  8
0
  6
Continuous
 62
     7
370
    25
100
AcDbLine
 10
100.205
 20
163.8
 30
0.0
 11
100.655
 21
164.25
 31
0.0
  0
LINE
  5
75
330
1F
100
AcDbEntity
  8
0
  6
Continuous
 62
     7
370
    25
100
AcDbLine
 10
100.655
 20
171.75
 30
0.0
 11
100.205
 21
172.2
 31
0.0
  0
LINE
  5
76
330
1F
100
AcDbEntity
  8
0
  6
Continuous
 62
     7
370
    25
100
AcDbLine
 10
99.705
 20
163.8
 30
0.0
 11
100.205
 21
163.8
 31
0.0
  0
LINE
  5
77
330
1F
100
AcDbEntity
  8
0
  6
Continuous
 62
     7
370
    25
100
AcDbLine
 10
100.205
 20
172.2
 30
0.0
 11
99.705
 21
172.2
 31
0.0
  0
LWPOLYLINE
  5
78
330
1F
100
AcDbEntity
  8
0
  6
Continuous
 62
     7
370
    25
100
AcDbPolyline
 90
        3
 70
   128
 43
0.0
 10
102.655
 20
165.9864248101
 10
102.721196422
 20
165.9951847267
 10
102.8192135624
 20
166.0
  0
LWPOLYLINE
  5
79
330
1F
100
AcDbEntity
  8
0
  6
Continuous
 62
     7
370
    25
100
AcDbPolyline
 90
        3
 70
   128
 43
0.0
 10
102.8192135624
 20
170.0
 10
102.721196422
 20
170.0048152733
 10
102.655
 20
170.0135751899
  0
LINE
  5
7A
330
1F
100
AcDbEntity
  8
0
  6
Continuous
 62
     7
370
    25
100
AcDbLine
 10
102.8192135624
 20
166.0
 30
0.0
 11
103.3957389673
 21
166.0
 31
0.0
  0
LINE
  5
7B
330
1F
100
AcDbEntity
  8
0
  6
Continuous
 62
     7
370
    25
100
AcDbLine
 10
103.3957391645
 20
170.0
 30
0.0
 11
102.8192135624
 21
170.0
 31
0.0
  0
LINE
  5
7C
330
1F
100
AcDbEntity
  8
0
  6
Continuous
 62
     7
370
    25
100
AcDbLine
 10
100.655
 20
186.0
 30
0.0
 11
166.645
 21
186.0
 31
0.0
  0
LINE
  5
7D
330
1F
100
AcDbEntity
  8
0
  6
Continuous
 62
     7
370
    25
100
AcDbLine
 10
100.655
 20
150.0
 30
0.0
 11
100.655
 21
186.0
 31
0.0
  0
LINE
  5
7E
330
1F
100
AcDbEntity
  8
0
  6
Continuous
 62
     7
370
    25
100
AcDbLine
 10
164.645
 20
184.0
 30
0.0
 11
164.645
 21
152.0
 31
0.0
  0
LINE
  5
7F
330
1F
100
AcDbEntity
  8
0
  6
Continuous
 62
     7
370
    25
100
AcDbLine
 10
102.655
 20
184.0
 30
0.0
 11
164.645
 21
184.0
 31
0.0
  0
LINE
  5
80
330
1F
100
AcDbEntity
  8
0
  6
Continuous
 62
     7
370
    25
100
AcDbLine
 10
102.655
 20
152.0
 30
0.0
 11
102.655
 21
184.0
 31
0.0
  0
LINE
  5
81
330
1F
100
AcDbEntity
  8
0
  6
Continuous
 62
     7
370
    25
100
AcDbLine
 10
166.645
 20
186.0
 30
0.0
 11
166.645
 21
150.0
 31
0.0
  0
LINE
  5
82
330
1F
100
AcDbEntity
  8
0
  6
Continuous
 62
     7
370
    25
100
AcDbLine
 10
166.645
 20
150.0
 30
0.0
 11
100.655
 21
150.0
 31
0.0
  0
LINE
  5
83
330
1F
100
AcDbEntity
  8
0
  6
Continuous
 62
     7
370
    25
100
AcDbLine
 10
164.645
 20
152.0
 30
0.0
 11
102.655
 21
152.0
 31
0.0
  0
LINE
  5
84
330
1F
100
AcDbEntity
  8
0
  6
Continuous
 62
     7
370
    25
100
AcDbLine
 10
167.595
 20
172.2
 30
0.0
 11
167.595
 21
163.8
 31
0.0
  0
LINE
  5
85
330
1F
100
AcDbEntity
  8
0
  6
Continuous
 62
     7
370
    25
100
AcDbLine
 10
167.095
 20
172.2
 30
0.0
 11
167.095
 21
163.8
 31
0.0
  0
LINE
  5
86
330
1F
100
AcDbEntity
  8
0
  6
Continuous
 62
     7
370
    25
100
AcDbLine
 10
100.205
 20
168.0
 30
0.0
 11
100.205
 21
172.2
 31
0.0
  0
LINE
  5
87
330
1F
100
AcDbEntity
  8
0
  6
Continuous
 62
     7
370
    25
100
AcDbLine
 10
100.205
 20
163.8
 30
0.0
 11
100.205
 21
168.0
 31
0.0
  0
LINE
  5
88
330
1F
100
AcDbEntity
  8
0
  6
Continuous
 62
     7
370
    25
100
AcDbLine
 10
99.705
 20
168.0
 30
0.0
 11
99.705
 21
172.2
 31
0.0
  0
LINE
  5
89
330
1F
100
AcDbEntity
  8
0
  6
Continuous
 62
     7
370
    25
100
AcDbLine
 10
99.705
 20
163.8
 30
0.0
 11
99.705
 21
168.0
 31
0.0
  0
ARC
  5
8A
330
1F
100
AcDbEntity
  8
0
  6
Continuous
 62
     7
370
    25
100
AcDbCircle
 10
118.395738
 20
168.0
 30
0.0
 40
6.850000000000023
100
AcDbArc
 50
90.0
 51
270.0
  0
ARC
  5
8B
330
1F
100
AcDbEntity
  8
0
  6
Continuous
 62
     7
370
    25
100
AcDbCircle
 10
118.395738
 20
168.0
 30
0.0
 40
6.850000000000023
100
AcDbArc
 50
270.0
 51
90.0
  0
LWPOLYLINE
  5
8C
330
1F
100
AcDbEntity
  8
0
  6
Continuous
 62
     7
370
    25
100
AcDbPolyline
 90
       23
 70
   128
 43
0.0
 10
104.3960804904
 20
180.6992631614
 10
104.4959223589
 20
180.5168445468
 10
104.5807157434
 20
180.3657260914
 10
104.6898196978
 20
180.1674250166
 10
104.8131407838
 20
179.943593277
 10
104.9950149433
 20
179.6132844106
 10
105.1945882783
 20
179.2498659801
 10
105.3934318953
 20
178.8890175659
 10
105.5951914795
 20
178.5239776372
 10
105.7992377552
 20
178.1553989954
 10
106.0049989336
 20
177.7838748053
 10
106.1109867013
 20
177.5916113333
 10
106.2244018454
 20
177.3843090426
 10
106.3461516502
 20
177.1605337858
 10
106.4697346224
 20
176.9372004874
 10
106.5709252208
 20
176.7558749401
 10
106.759439635
 20
176.4131130029
 10
106.9417062122
 20
176.0822343143
 10
107.1193593574
 20
175.7600979228
 10
107.3883033965
 20
175.2724845775
 10
107.6629175876
 20
174.7733228021
 10
108.0272320131
 20
174.1101206519
 10
108.4950341655
 20
173.2625266984
  0
ARC
  5
8D
330
1F
100
AcDbEntity
  8
0
  6
Continuous
 62
     7
370
    25
100
AcDbCircle
 10
104.6946094022
 20
180.7011527929
 30
0.0
 40
0.2986729402087975
100
AcDbArc
 50
89.7303459344
 51
180.3622458585
  0
LWPOLYLINE
  5
8E
330
1F
100
AcDbEntity
  8
0
  6
Continuous
 62
     7
370
    25
100
AcDbPolyline
 90
       20
 70
   128
 43
0.0
 10
104.696015096
 20
180.999770038
 10
104.8222842982
 20
180.9428900772
 10
105.031432934
 20
180.8528056657
 10
105.3118024989
 20
180.7303812388
 10
105.6135468891
 20
180.5980616358
 10
105.9326258752
 20
180.4585146298
 10
106.4049799708
 20
180.2509227696
 10
106.9475002968
 20
180.0142828027
 10
107.5055964175
 20
179.7692862316
 10
108.020081018
 20
179.544375841
 10
108.47603324
 20
179.3431045221
 10
109.0628413488
 20
179.0883177037
 10
109.6662684389
 20
178.8233602339
 10
110.150783295
 20
178.6102289111
 10
110.5564128363
 20
178.4335172926
 10
111.0069021682
 20
178.2368553229
 10
111.468940262
 20
178.0348822173
 10
111.9425868505
 20
177.8273406099
 10
112.427787277
 20
177.6144659956
 10
112.924558624
 20
177.3961847725
  0
LWPOLYLINE
  5
8F
330
1F
100
AcDbEntity
  8
0
  6
Continuous
 62
     7
370
    25
100
AcDbPolyline
 90
        9
 70
   128
 43
0.0
 10
118.3957379908
 20
175.0000145046
 10
117.6169408206
 20
175.3435172794
 10
116.9848826597
 20
175.6190868935
 10
116.4744445645
 20
175.8412555673
 10
115.9135047384
 20
176.0865944864
 10
115.3626643583
 20
176.3281243571
 10
114.4027458452
 20
176.7486367851
 10
113.5640935825
 20
177.1140079779
 10
112.924558669
 20
177.3961357813
  0
ARC
  5
90
330
1F
100
AcDbEntity
  8
0
  6
Continuous
 62
     7
370
    25
100
AcDbCircle
 10
118.395738
 20
168.0
 30
0.0
 40
7.000000000000135
100
AcDbArc
 50
90.0
 51
179.9999931565
  0
LWPOLYLINE
  5
91
330
1F
100
AcDbEntity
  8
0
  6
Continuous
 62
     7
370
    25
100
AcDbPolyline
 90
       10
 70
   128
 43
0.0
 10
108.4950341655
 20
173.2625266984
 10
108.77029009
 20
172.7560118021
 10
108.9822943727
 20
172.3759888937
 10
109.1703330072
 20
172.037774198
 10
109.3797816738
 20
171.6567221905
 10
109.620031391
 20
171.2210521659
 10
109.8496280469
 20
170.8056207732
 10
110.066727857
 20
170.4123407265
 10
110.7521072579
 20
169.1707772072
 10
111.3957513962
 20
168.0000008176
  0
LWPOLYLINE
  5
92
330
1F
100
AcDbEntity
  8
0
  6
Continuous
 62
     7
370
    25
100
AcDbPolyline
 90
       13
 70
   128
 43
0.0
 10
123.866917376
 20
177.3961847725
 10
125.9157569878
 20
178.29352954
 10
127.7212535016
 20
179.0839233751
 10
128.1539452101
 20
179.273412308
 10
128.5699618207
 20
179.455637439
 10
128.9692974829
 20
179.6305735607
 10
129.3519491724
 20
179.798207642
 10
129.7179158482
 20
179.9585351983
 10
130.0671941246
 20
180.1115416416
 10
130.7508700783
 20
180.4109712756
 10
131.3523408304
 20
180.6744223037
 10
131.7748705021
 20
180.8583450471
 10
132.0954553603
 20
180.9997700428
  0
ARC
  5
93
330
1F
100
AcDbEntity
  8
0
  6
Continuous
 62
     7
370
    25
100
AcDbCircle
 10
132.0968144266
 20
180.7011050585
 30
0.0
 40
0.2987204768604919
100
AcDbArc
 50
359.6534331009
 51
90.2606676996
  0
LWPOLYLINE
  5
94
330
1F
100
AcDbEntity
  8
0
  6
Continuous
 62
     7
370
    25
100
AcDbPolyline
 90
       12
 70
   128
 43
0.0
 10
132.3955695076
 20
180.6992983274
 10
132.3755172237
 20
180.6653901626
 10
132.2726635837
 20
180.4772515705
 10
132.0999822717
 20
180.1625115786
 10
131.9123372
 20
179.8219374138
 10
131.7137232385
 20
179.4628216754
 10
131.5055643015
 20
179.0854005238
 10
131.2871655708
 20
178.6892817721
 10
131.0593196385
 20
178.2746560335
 10
130.2353783605
 20
176.779201697
 10
129.3130771894
 20
175.1081905989
 10
128.2961723887
 20
173.2625260958
  0
LWPOLYLINE
  5
95
330
1F
100
AcDbEntity
  8
0
  6
Continuous
 62
     7
370
    25
100
AcDbPolyline
 90
        6
 70
   128
 43
0.0
 10
125.3957253306
 20
168.0000249542
 10
125.8335602609
 20
168.7986975497
 10
126.3190540709
 20
169.676423345
 10
126.8418087256
 20
170.6224155754
 10
127.6173254204
 20
172.0288592167
 10
128.2964418345
 20
173.2625266984
  0
ARC
  5
96
330
1F
100
AcDbEntity
  8
0
  6
Continuous
 62
     7
370
    25
100
AcDbCircle
 10
118.395738
 20
168.0
 30
0.0
 40
7.0
100
AcDbArc
 50
0.0002035273
 51
90.0
  0
LWPOLYLINE
  5
97
330
1F
100
AcDbEntity
  8
0
  6
Continuous
 62
     7
370
    25
100
AcDbPolyline
 90
       10
 70
   128
 43
0.0
 10
123.866917331
 20
177.3961357813
 10
123.4742559013
 20
177.2248897136
 10
123.0567883113
 20
177.0422719409
 10
122.6147774656
 20
176.8485551966
 10
122.1485782684
 20
176.6441076529
 10
121.6583034507
 20
176.4290462551
 10
121.1440220092
 20
176.2034425796
 10
120.3673869623
 20
175.8642082775
 10
119.4537425589
 20
175.465607452
 10
118.3957380092
 20
175.0000145046
  0
LWPOLYLINE
  5
98
330
1F
100
AcDbEntity
  8
0
  6
Continuous
 62
     7
370
    25
100
AcDbPolyline
 90
       13
 70
   128
 43
0.0
 10
112.924558624
 20
158.6038152275
 10
110.8757190477
 20
157.7064704756
 10
109.0702225602
 20
156.916076652
 10
108.6375308571
 20
156.7265877214
 10
108.2215142514
 20
156.5443625926
 10
107.8221785933
 20
156.3694264727
 10
107.4395269074
 20
156.2017923929
 10
107.0735602345
 20
156.0414648379
 10
106.7242819605
 20
155.8884583956
 10
106.0406059826
 20
155.5890287513
 10
105.4391352184
 20
155.3255777178
 10
105.0166055007
 20
155.1416549556
 10
104.6960206312
 20
155.0002299573
  0
ARC
  5
99
330
1F
100
AcDbEntity
  8
0
  6
Continuous
 62
     7
370
    25
100
AcDbCircle
 10
104.6946615714
 20
155.2988949385
 30
0.0
 40
0.2987204736297936
100
AcDbArc
 50
179.6534354542
 51
270.2606664646
  0
LWPOLYLINE
  5
9A
330
1F
100
AcDbEntity
  8
0
  6
Continuous
 62
     7
370
    25
100
AcDbPolyline
 90
       12
 70
   128
 43
0.0
 10
104.3959064926
 20
155.3007016573
 10
104.4159588793
 20
155.3346100189
 10
104.5188126269
 20
155.5227488131
 10
104.6914938977
 20
155.8374887284
 10
104.8791389066
 20
156.17806278
 10
105.0777528133
 20
156.5371784191
 10
105.2859116781
 20
156.9145994378
 10
105.504310313
 20
157.3107180145
 10
105.7321561241
 20
157.7253435356
 10
106.5560974826
 20
159.2207980278
 10
107.4783987357
 20
160.8918092703
 10
108.4953036113
 20
162.7374739042
  0
ARC
  5
9B
330
1F
100
AcDbEntity
  8
0
  6
Continuous
 62
     7
370
    25
100
AcDbCircle
 10
367.6191517179
 20
23.3383714553
 30
0.0
 40
294.2404083277207
100
AcDbArc
 50
150.5512837547
 51
151.7214073238
  0
ARC
  5
9C
330
1F
100
AcDbEntity
  8
0
  6
Continuous
 62
     7
370
    25
100
AcDbCircle
 10
118.395738
 20
168.0
 30
0.0
 40
7.000000000000137
100
AcDbArc
 50
179.9999931565
 51
270.0000113184
  0
LWPOLYLINE
  5
9D
330
1F
100
AcDbEntity
  8
0
  6
Continuous
 62
     7
370
    25
100
AcDbPolyline
 90
       10
 70
   128
 43
0.0
 10
112.924558669
 20
158.6038642187
 10
113.3192615159
 20
158.775921934
 10
113.7381048148
 20
158.9591262029
 10
114.1807890832
 20
159.1531663465
 10
114.6469053355
 20
159.3576180894
 10
115.1363068426
 20
159.5723292171
 10
115.6488869824
 20
159.7971891214
 10
116.42559887
 20
160.1364457133
 10
117.338779094
 20
160.5348498894
 10
118.3957393744
 20
160.9999867178
  0
LWPOLYLINE
  5
9E
330
1F
100
AcDbEntity
  8
0
  6
Continuous
 62
     7
370
    25
100
AcDbPolyline
 90
       23
 70
   128
 43
0.0
 10
132.3953955094
 20
155.3007368242
 10
132.2955536368
 20
155.4831554567
 10
132.2107602448
 20
155.6342739304
 10
132.1016562808
 20
155.8325750226
 10
131.9783351832
 20
156.0564067827
 10
131.7964609815
 20
156.3867157262
 10
131.5968875693
 20
156.7501342969
 10
131.3980439016
 20
157.1109828004
 10
131.1962843068
 20
157.4760227453
 10
130.9922380646
 20
157.8446013261
 10
130.786476967
 20
158.2161253747
 10
130.6804892041
 20
158.4083888405
 10
130.5670740646
 20
158.6156911226
 10
130.445324264
 20
158.8394663687
 10
130.3217412954
 20
159.0627996604
 10
130.220550692
 20
159.2441252182
 10
130.0320362924
 20
159.5868871286
 10
129.8497697303
 20
159.9177657897
 10
129.672116593
 20
160.2399021672
 10
129.4031725504
 20
160.7275155191
 10
129.1285583705
 20
161.2266772739
 10
128.764243966
 20
161.8898793858
 10
128.2964418345
 20
162.7374733016
  0
ARC
  5
9F
330
1F
100
AcDbEntity
  8
0
  6
Continuous
 62
     7
370
    25
100
AcDbCircle
 10
132.0968665998
 20
155.2988472042
 30
0.0
 40
0.2986729370513656
100
AcDbArc
 50
269.7303470796
 51
0.3622436752
  0
LWPOLYLINE
  5
A0
330
1F
100
AcDbEntity
  8
0
  6
Continuous
 62
     7
370
    25
100
AcDbPolyline
 90
       20
 70
   128
 43
0.0
 10
132.0954609119
 20
155.000229962
 10
131.9691916059
 20
155.0571099712
 10
131.7600425758
 20
155.1471945478
 10
131.4796722638
 20
155.2696193048
 10
131.1779268843
 20
155.4019393436
 10
130.8588467607
 20
155.5414868456
 10
130.3864921381
 20
155.7490789445
 10
129.8439692302
 20
155.9857200191
 10
129.2858753
 20
156.2307156405
 10
128.7713911001
 20
156.4556258711
 10
128.3154397604
 20
156.6568967854
 10
127.7286328747
 20
156.9116830655
 10
127.125206824
 20
157.1766400909
 10
126.6406936684
 20
157.3897706706
 10
126.2350640139
 20
157.5664823295
 10
125.7845743991
 20
157.7631444185
 10
125.3225360786
 20
157.9651176235
 10
124.8488893195
 20
158.1726593083
 10
124.3636887794
 20
158.3855339762
 10
123.866917376
 20
158.6038152275
  0
LWPOLYLINE
  5
A1
330
1F
100
AcDbEntity
  8
0
  6
Continuous
 62
     7
370
    25
100
AcDbPolyline
 90
        9
 70
   128
 43
0.0
 10
118.3957393912
 20
160.9999867179
 10
119.1742074535
 20
160.6566064349
 10
119.805621832
 20
160.3813134698
 10
120.3152554312
 20
160.1595022008
 10
120.875984295
 20
159.9142688922
 10
121.4263857832
 20
159.6729408611
 10
122.3862846046
 20
159.2524291137
 10
123.2259879153
 20
158.8865852721
 10
123.866917331
 20
158.6038642187
  0
ARC
  5
A2
330
1F
100
AcDbEntity
  8
0
  6
Continuous
 62
     7
370
    25
100
AcDbCircle
 10
118.395738
 20
168.0
 30
0.0
 40
7.000000000000025
100
AcDbArc
 50
270.0000113184
 51
0.0002035273
  0
LWPOLYLINE
  5
A3
330
1F
100
AcDbEntity
  8
0
  6
Continuous
 62
     7
370
    25
100
AcDbPolyline
 90
       12
 70
   128
 43
0.0
 10
128.2964418345
 20
162.7374733016
 10
128.0100057198
 20
163.2621438309
 10
127.7610654777
 20
163.7108791227
 10
127.5608453115
 20
164.072035358
 10
127.302543624
 20
164.5409161043
 10
127.0242471243
 20
165.0460245984
 10
126.7249198924
 20
165.5884354881
 10
126.4651068205
 20
166.0594590778
 10
126.1807862563
 20
166.5755030678
 10
125.8701321122
 20
167.1384618135
 10
125.5804383606
 20
167.6620425086
 10
125.3957253281
 20
168.0000247768
  0
LWPOLYLINE
  5
A4
330
1F
100
AcDbEntity
  8
0
  6
Continuous
 62
     7
370
    25
100
AcDbPolyline
 90
        9
 70
   128
 43
0.0
 10
118.3957379993
 20
180.9998378506
 10
118.3959709714
 20
180.8008632703
 10
118.3959580743
 20
180.5703418931
 10
118.3957825673
 20
180.3086324496
 10
118.3954217322
 20
180.0156370561
 10
118.3948411217
 20
179.6912072931
 10
118.3930122257
 20
178.987039924
 10
118.3925696316
 20
178.2187002033
 10
118.395738
 20
177.3957732927
  0
LINE
  5
A5
330
1F
100
AcDbEntity
  8
0
  6
Continuous
 62
     7
370
    25
100
AcDbLine
 10
118.3957379995
 20
180.9998370523
 30
0.0
 11
132.0954553996
 21
180.9998224439
 31
0.0
  0
LWPOLYLINE
  5
A6
330
1F
100
AcDbEntity
  8
0
  6
Continuous
 62
     7
370
    25
100
AcDbPolyline
 90
        5
 70
   128
 43
0.0
 10
118.3957379999
 20
177.1851195838
 10
118.3953072813
 20
176.7168551594
 10
118.3947699459
 20
176.1948842191
 10
118.3951172583
 20
175.6234777213
 10
118.395738007
 20
175.0000022028
  0
LWPOLYLINE
  5
A7
330
1F
100
AcDbEntity
  8
0
  6
Continuous
 62
     7
370
    25
100
AcDbPolyline
 90
        3
 70
   128
 43
0.0
 10
118.395738
 20
177.3957732927
 10
118.3952159457
 20
177.2782763971
 10
118.3957379999
 20
177.1851195838
  0
LWPOLYLINE
  5
A8
330
1F
100
AcDbEntity
  8
0
  6
Continuous
 62
     7
370
    25
100
AcDbPolyline
 90
        9
 70
   128
 43
0.0
 10
118.395746798
 20
155.0001621513
 10
118.3955039864
 20
155.1991809867
 10
118.3955119537
 20
155.429739379
 10
118.3956859164
 20
155.6914720307
 10
118.3960472586
 20
155.9844710765
 10
118.3966291309
 20
156.3088793497
 10
118.3984604553
 20
157.0130321203
 10
118.3989050305
 20
157.7813432415
 10
118.395738
 20
158.6042267073
  0
LINE
  5
A9
330
1F
100
AcDbEntity
  8
0
  6
Continuous
 62
     7
370
    25
100
AcDbLine
 10
118.3957467979
 20
155.0001629482
 30
0.0
 11
104.6960205919
 21
155.0001775563
 31
0.0
  0
LWPOLYLINE
  5
AA
330
1F
100
AcDbEntity
  8
0
  6
Continuous
 62
     7
370
    25
100
AcDbPolyline
 90
        5
 70
   128
 43
0.0
 10
118.3957380001
 20
158.8148804162
 10
118.396166316
 20
159.2831377497
 10
118.3967027337
 20
159.8051050323
 10
118.3963564856
 20
160.3765134468
 10
118.3957393797
 20
160.9999990262
  0
LWPOLYLINE
  5
AB
330
1F
100
AcDbEntity
  8
0
  6
Continuous
 62
     7
370
    25
100
AcDbPolyline
 90
        3
 70
   128
 43
0.0
 10
118.395738
 20
158.6042267073
 10
118.3962600543
 20
158.7217236029
 10
118.3957380001
 20
158.8148804162
  0
LINE
  5
AC
330
1F
100
AcDbEntity
  8
0
  6
Continuous
 62
     7
370
    25
100
AcDbLine
 10
104.6960150568
 20
180.9998224253
 30
0.0
 11
118.3957379995
 21
180.9998370523
 31
0.0
  0
LINE
  5
AD
330
1F
100
AcDbEntity
  8
0
  6
Continuous
 62
     7
370
    25
100
AcDbLine
 10
132.0954609512
 20
155.0001775749
 30
0.0
 11
118.3957467979
 21
155.0001629482
 31
0.0
  0
LINE
  5
AE
330
1F
100
AcDbEntity
  8
0
  6
Continuous
 62
     7
370
    25
100
AcDbLine
 10
104.3959465623
 20
155.3007017957
 30
0.0
 11
104.3958858147
 21
167.9999921373
 31
0.0
  0
LWPOLYLINE
  5
AF
330
1F
100
AcDbEntity
  8
0
  6
Continuous
 62
     7
370
    25
100
AcDbPolyline
 90
        7
 70
   128
 43
0.0
 10
108.495165703
 20
167.9999999998
 10
107.2399914118
 20
168.0026042717
 10
106.0771225398
 20
168.0004009697
 10
105.5817903991
 20
167.9998279282
 10
105.1623278946
 20
167.998795493
 10
104.7639918014
 20
167.9981186054
 10
104.395908679
 20
167.999992143
  0
LWPOLYLINE
  5
B0
330
1F
100
AcDbEntity
  8
0
  6
Continuous
 62
     7
370
    25
100
AcDbPolyline
 90
        5
 70
   128
 43
0.0
 10
110.9420800871
 20
167.9999999999
 10
110.2209365278
 20
168.0005731988
 10
109.5753968428
 20
168.0014041136
 10
108.9992882831
 20
168.0010082387
 10
108.495165703
 20
167.9999999998
  0
LWPOLYLINE
  5
B1
330
1F
100
AcDbEntity
  8
0
  6
Continuous
 62
     7
370
    25
100
AcDbPolyline
 90
        3
 70
   128
 43
0.0
 10
110.9420800871
 20
167.9999999999
 10
111.1066335766
 20
167.9993017407
 10
111.2769939542
 20
168.0
  0
LWPOLYLINE
  5
B2
330
1F
100
AcDbEntity
  8
0
  6
Continuous
 62
     7
370
    25
100
AcDbPolyline
 90
        3
 70
   128
 43
0.0
 10
111.2769939542
 20
168.0
 10
111.3362608519
 20
168.000028704
 10
111.3957659599
 20
168.0000001199
  0
LINE
  5
B3
330
1F
100
AcDbEntity
  8
0
  6
Continuous
 62
     7
370
    25
100
AcDbLine
 10
132.3955294388
 20
180.699298189
 30
0.0
 11
132.3955901856
 21
167.9999989309
 31
0.0
  0
LWPOLYLINE
  5
B4
330
1F
100
AcDbEntity
  8
0
  6
Continuous
 62
     7
370
    25
100
AcDbPolyline
 90
        7
 70
   128
 43
0.0
 10
128.2963102302
 20
167.9999999998
 10
129.5542306752
 20
167.9973545591
 10
130.7200550313
 20
167.999595742
 10
131.2154417666
 20
168.0001695407
 10
131.6330301083
 20
168.0011802934
 10
132.0293957661
 20
168.0018426105
 10
132.3955673233
 20
167.9999989252
  0
LWPOLYLINE
  5
B5
330
1F
100
AcDbEntity
  8
0
  6
Continuous
 62
     7
370
    25
100
AcDbPolyline
 90
        5
 70
   128
 43
0.0
 10
125.8493959129
 20
168.0000000001
 10
126.57053946
 20
167.9994268011
 10
127.2160791278
 20
167.9985958857
 10
127.7921876681
 20
167.9989917602
 10
128.2963102302
 20
167.9999999998
  0
LWPOLYLINE
  5
B6
330
1F
100
AcDbEntity
  8
0
  6
Continuous
 62
     7
370
    25
100
AcDbPolyline
 90
        3
 70
   128
 43
0.0
 10
125.8493959129
 20
168.0000000001
 10
125.6848424056
 20
168.0006982594
 10
125.5144820091
 20
168.0000000001
  0
LWPOLYLINE
  5
B7
330
1F
100
AcDbEntity
  8
0
  6
Continuous
 62
     7
370
    25
100
AcDbPolyline
 90
        3
 70
   128
 43
0.0
 10
125.5144820091
 20
168.0000000001
 10
125.4552144509
 20
167.9999846793
 10
125.3957088051
 20
168.0000266171
  0
LINE
  5
B8
330
1F
100
AcDbEntity
  8
0
  6
Continuous
 62
     7
370
    25
100
AcDbLine
 10
104.3958858147
 20
167.9999921373
 30
0.0
 11
104.3959424313
 21
180.6992644808
 31
0.0
  0
LINE
  5
B9
330
1F
100
AcDbEntity
  8
0
  6
Continuous
 62
     7
370
    25
100
AcDbLine
 10
132.3955901856
 20
167.9999989309
 30
0.0
 11
132.3955335676
 21
155.3007355049
 31
0.0
  0
LINE
  5
BA
330
1F
100
AcDbEntity
  8
0
  6
Continuous
 62
     7
370
    25
100
AcDbLine
 10
103.4900720027
 20
153.0943340027
 30
0.0
 11
133.3014039973
 21
153.0943340027
 31
0.0
  0
LINE
  5
BB
330
1F
100
AcDbEntity
  8
0
  6
Continuous
 62
     7
370
    25
100
AcDbLine
 10
103.4900720027
 20
182.9056659973
 30
0.0
 11
103.4900720027
 21
153.0943340027
 31
0.0
  0
LINE
  5
BC
330
1F
100
AcDbEntity
  8
0
  6
Continuous
 62
     7
370
    25
100
AcDbLine
 10
103.4900720027
 20
182.9056659973
 30
0.0
 11
133.3014039973
 21
182.9056659973
 31
0.0
  0
LINE
  5
BD
330
1F
100
AcDbEntity
  8
0
  6
Continuous
 62
     7
370
    25
100
AcDbLine
 10
133.3014039973
 20
182.9056659973
 30
0.0
 11
133.3014039973
 21
153.0943340027
 31
0.0
  0
LINE
  5
BE
330
1F
100
AcDbEntity
  8
0
  6
Continuous
 62
     7
370
    25
100
AcDbLine
 10
103.3957528126
 20
182.9999996573
 30
0.0
 11
103.4900720027
 21
182.9056659973
 31
0.0
  0
LINE
  5
BF
330
1F
100
AcDbEntity
  8
0
  6
Continuous
 62
     7
370
    25
100
AcDbLine
 10
103.4900720027
 20
153.0943340027
 30
0.0
 11
103.3957653172
 21
152.9999999194
 31
0.0
  0
LINE
  5
C0
330
1F
100
AcDbEntity
  8
0
  6
Continuous
 62
     7
370
    25
100
AcDbLine
 10
103.3957653172
 20
152.9999999124
 30
0.0
 11
103.3958175002
 21
154.4002696452
 31
0.0
  0
LINE
  5
C1
330
1F
100
AcDbEntity
  8
0
  6
Continuous
 62
     7
370
    25
100
AcDbLine
 10
103.3958001684
 20
181.599834851
 30
0.0
 11
103.3957528126
 21
182.9999996501
 31
0.0
  0
LINE
  5
C2
330
1F
100
AcDbEntity
  8
0
  6
Continuous
 62
     7
370
    25
100
AcDbLine
 10
103.3957397362
 20
181.599834851
 30
0.0
 11
103.3957383955
 21
154.4002696452
 31
0.0
  0
LINE
  5
C3
330
1F
100
AcDbEntity
  8
0
  6
Continuous
 62
     7
370
    25
100
AcDbLine
 10
133.3014039973
 20
182.9056659973
 30
0.0
 11
133.3957116181
 21
182.9999999955
 31
0.0
  0
LINE
  5
C4
330
1F
100
AcDbEntity
  8
0
  6
Continuous
 62
     7
370
    25
100
AcDbLine
 10
133.3957116181
 20
183.0000000022
 30
0.0
 11
133.3956605273
 21
181.5995297544
 31
0.0
  0
LINE
  5
C5
330
1F
100
AcDbEntity
  8
0
  6
Continuous
 62
     7
370
    25
100
AcDbLine
 10
133.39573623
 20
154.4001308685
 30
0.0
 11
133.3957370478
 21
181.5995297544
 31
0.0
  0
LINE
  5
C6
330
1F
100
AcDbEntity
  8
0
  6
Continuous
 62
     7
370
    25
100
AcDbLine
 10
133.3956757453
 20
154.4001308685
 30
0.0
 11
133.3957231739
 21
153.00000035
 31
0.0
  0
LINE
  5
C7
330
1F
100
AcDbEntity
  8
0
  6
Continuous
 62
     7
370
    25
100
AcDbLine
 10
133.3014039973
 20
153.0943340027
 30
0.0
 11
133.3957376175
 21
153.0000003825
 31
0.0
  0
LINE
  5
C8
330
1F
100
AcDbEntity
  8
0
  6
Continuous
 62
     7
370
    25
100
AcDbLine
 10
103.3957528126
 20
182.9999996501
 30
0.0
 11
133.3957116181
 21
183.0000000022
 31
0.0
  0
LINE
  5
C9
330
1F
100
AcDbEntity
  8
0
  6
Continuous
 62
     7
370
    25
100
AcDbLine
 10
133.3957231739
 20
153.00000035
 30
0.0
 11
103.3957653172
 21
152.9999999124
 31
0.0
  0
ARC
  5
CA
330
1F
100
AcDbEntity
  8
0
  6
Continuous
 62
     7
370
    25
100
AcDbCircle
 10
148.895738
 20
168.0
 30
0.0
 40
6.850000000000023
100
AcDbArc
 50
270.0
 51
90.0
  0
ARC
  5
CB
330
1F
100
AcDbEntity
  8
0
  6
Continuous
 62
     7
370
    25
100
AcDbCircle
 10
148.895738
 20
168.0
 30
0.0
 40
6.850000000000023
100
AcDbArc
 50
90.0
 51
270.0
  0
LWPOLYLINE
  5
CC
330
1F
100
AcDbEntity
  8
0
  6
Continuous
 62
     7
370
    25
100
AcDbPolyline
 90
       23
 70
   128
 43
0.0
 10
134.8960804904
 20
180.6992631614
 10
134.9959223589
 20
180.5168445468
 10
135.0807157434
 20
180.3657260914
 10
135.1898196978
 20
180.1674250166
 10
135.3131407838
 20
179.943593277
 10
135.4950149433
 20
179.6132844106
 10
135.6945882783
 20
179.2498659801
 10
135.8934318953
 20
178.8890175659
 10
136.0951914795
 20
178.5239776372
 10
136.2992377552
 20
178.1553989954
 10
136.5049989336
 20
177.7838748053
 10
136.6109867013
 20
177.5916113333
 10
136.7244018454
 20
177.3843090426
 10
136.8461516502
 20
177.1605337858
 10
136.9697346224
 20
176.9372004874
 10
137.0709252208
 20
176.7558749401
 10
137.259439635
 20
176.4131130029
 10
137.4417062122
 20
176.0822343143
 10
137.6193593574
 20
175.7600979228
 10
137.8883033965
 20
175.2724845775
 10
138.1629175876
 20
174.7733228021
 10
138.5272320131
 20
174.1101206519
 10
138.9950341655
 20
173.2625266984
  0
ARC
  5
CD
330
1F
100
AcDbEntity
  8
0
  6
Continuous
 62
     7
370
    25
100
AcDbCircle
 10
135.1946094022
 20
180.7011527929
 30
0.0
 40
0.2986729402087304
100
AcDbArc
 50
89.7303459344
 51
180.3622458585
  0
LWPOLYLINE
  5
CE
330
1F
100
AcDbEntity
  8
0
  6
Continuous
 62
     7
370
    25
100
AcDbPolyline
 90
       20
 70
   128
 43
0.0
 10
135.196015096
 20
180.999770038
 10
135.3222842982
 20
180.9428900772
 10
135.531432934
 20
180.8528056657
 10
135.8118024989
 20
180.7303812388
 10
136.1135468891
 20
180.5980616358
 10
136.4326258752
 20
180.4585146298
 10
136.9049799708
 20
180.2509227696
 10
137.4475002968
 20
180.0142828027
 10
138.0055964175
 20
179.7692862316
 10
138.520081018
 20
179.544375841
 10
138.97603324
 20
179.3431045221
 10
139.5628413488
 20
179.0883177037
 10
140.1662684389
 20
178.8233602339
 10
140.650783295
 20
178.6102289111
 10
141.0564128363
 20
178.4335172926
 10
141.5069021682
 20
178.2368553229
 10
141.968940262
 20
178.0348822173
 10
142.4425868505
 20
177.8273406099
 10
142.927787277
 20
177.6144659956
 10
143.424558624
 20
177.3961847725
  0
LWPOLYLINE
  5
CF
330
1F
100
AcDbEntity
  8
0
  6
Continuous
 62
     7
370
    25
100
AcDbPolyline
 90
        9
 70
   128
 43
0.0
 10
148.8957379908
 20
175.0000145046
 10
148.1169408206
 20
175.3435172794
 10
147.4848826597
 20
175.6190868935
 10
146.9744445645
 20
175.8412555673
 10
146.4135047384
 20
176.0865944864
 10
145.8626643583
 20
176.3281243571
 10
144.9027458452
 20
176.7486367851
 10
144.0640935825
 20
177.1140079779
 10
143.424558669
 20
177.3961357813
  0
ARC
  5
D0
330
1F
100
AcDbEntity
  8
0
  6
Continuous
 62
     7
370
    25
100
AcDbCircle
 10
148.895738
 20
168.0
 30
0.0
 40
7.000000000000107
100
AcDbArc
 50
90.0
 51
179.9999931565
  0
LWPOLYLINE
  5
D1
330
1F
100
AcDbEntity
  8
0
  6
Continuous
 62
     7
370
    25
100
AcDbPolyline
 90
       10
 70
   128
 43
0.0
 10
138.9950341655
 20
173.2625266984
 10
139.27029009
 20
172.7560118021
 10
139.4822943727
 20
172.3759888937
 10
139.6703330072
 20
172.037774198
 10
139.8797816738
 20
171.6567221905
 10
140.120031391
 20
171.2210521659
 10
140.3496280469
 20
170.8056207732
 10
140.566727857
 20
170.4123407265
 10
141.2521072579
 20
169.1707772072
 10
141.8957513962
 20
168.0000008176
  0
LWPOLYLINE
  5
D2
330
1F
100
AcDbEntity
  8
0
  6
Continuous
 62
     7
370
    25
100
AcDbPolyline
 90
       13
 70
   128
 43
0.0
 10
154.366917376
 20
177.3961847725
 10
156.4157569878
 20
178.29352954
 10
158.2212535016
 20
179.0839233751
 10
158.6539452101
 20
179.273412308
 10
159.0699618207
 20
179.455637439
 10
159.4692974829
 20
179.6305735607
 10
159.8519491724
 20
179.798207642
 10
160.2179158482
 20
179.9585351983
 10
160.5671941246
 20
180.1115416416
 10
161.2508700783
 20
180.4109712756
 10
161.8523408304
 20
180.6744223037
 10
162.2748705021
 20
180.8583450471
 10
162.5954553603
 20
180.9997700428
  0
ARC
  5
D3
330
1F
100
AcDbEntity
  8
0
  6
Continuous
 62
     7
370
    25
100
AcDbCircle
 10
162.5968144266
 20
180.7011050585
 30
0.0
 40
0.2987204768605137
100
AcDbArc
 50
359.6534331009
 51
90.2606676996
  0
LWPOLYLINE
  5
D4
330
1F
100
AcDbEntity
  8
0
  6
Continuous
 62
     7
370
    25
100
AcDbPolyline
 90
       12
 70
   128
 43
0.0
 10
162.8955695076
 20
180.6992983274
 10
162.8755172237
 20
180.6653901626
 10
162.7726635837
 20
180.4772515705
 10
162.5999822717
 20
180.1625115786
 10
162.4123372
 20
179.8219374138
 10
162.2137232385
 20
179.4628216754
 10
162.0055643015
 20
179.0854005238
 10
161.7871655708
 20
178.6892817721
 10
161.5593196385
 20
178.2746560335
 10
160.7353783605
 20
176.779201697
 10
159.8130771894
 20
175.1081905989
 10
158.7961723887
 20
173.2625260958
  0
LWPOLYLINE
  5
D5
330
1F
100
AcDbEntity
  8
0
  6
Continuous
 62
     7
370
    25
100
AcDbPolyline
 90
        6
 70
   128
 43
0.0
 10
155.8957253306
 20
168.0000249542
 10
156.3335602609
 20
168.7986975497
 10
156.8190540709
 20
169.676423345
 10
157.3418087256
 20
170.6224155754
 10
158.1173254204
 20
172.0288592167
 10
158.7964418345
 20
173.2625266984
  0
ARC
  5
D6
330
1F
100
AcDbEntity
  8
0
  6
Continuous
 62
     7
370
    25
100
AcDbCircle
 10
148.895738
 20
168.0
 30
0.0
 40
7.000000000000028
100
AcDbArc
 50
0.0002035273
 51
90.0
  0
LWPOLYLINE
  5
D7
330
1F
100
AcDbEntity
  8
0
  6
Continuous
 62
     7
370
    25
100
AcDbPolyline
 90
       10
 70
   128
 43
0.0
 10
154.366917331
 20
177.3961357813
 10
153.9742559013
 20
177.2248897136
 10
153.5567883113
 20
177.0422719409
 10
153.1147774656
 20
176.8485551966
 10
152.6485782684
 20
176.6441076529
 10
152.1583034507
 20
176.4290462551
 10
151.6440220092
 20
176.2034425796
 10
150.8673869623
 20
175.8642082775
 10
149.9537425589
 20
175.465607452
 10
148.8957380092
 20
175.0000145046
  0
LWPOLYLINE
  5
D8
330
1F
100
AcDbEntity
  8
0
  6
Continuous
 62
     7
370
    25
100
AcDbPolyline
 90
       13
 70
   128
 43
0.0
 10
143.424558624
 20
158.6038152275
 10
141.3757190477
 20
157.7064704756
 10
139.5702225602
 20
156.916076652
 10
139.1375308571
 20
156.7265877214
 10
138.7215142514
 20
156.5443625926
 10
138.3221785933
 20
156.3694264727
 10
137.9395269074
 20
156.2017923929
 10
137.5735602345
 20
156.0414648379
 10
137.2242819605
 20
155.8884583956
 10
136.5406059826
 20
155.5890287513
 10
135.9391352184
 20
155.3255777178
 10
135.5166055007
 20
155.1416549556
 10
135.1960206312
 20
155.0002299573
  0
ARC
  5
D9
330
1F
100
AcDbEntity
  8
0
  6
Continuous
 62
     7
370
    25
100
AcDbCircle
 10
135.1946615714
 20
155.2988949385
 30
0.0
 40
0.2987204736297936
100
AcDbArc
 50
179.6534354542
 51
270.2606664646
  0
LWPOLYLINE
  5
DA
330
1F
100
AcDbEntity
  8
0
  6
Continuous
 62
     7
370
    25
100
AcDbPolyline
 90
       12
 70
   128
 43
0.0
 10
134.8959064926
 20
155.3007016573
 10
134.9159588793
 20
155.3346100189
 10
135.0188126269
 20
155.5227488131
 10
135.1914938977
 20
155.8374887284
 10
135.3791389066
 20
156.17806278
 10
135.5777528133
 20
156.5371784191
 10
135.7859116781
 20
156.9145994378
 10
136.004310313
 20
157.3107180145
 10
136.2321561241
 20
157.7253435356
 10
137.0560974826
 20
159.2207980278
 10
137.9783987357
 20
160.8918092703
 10
138.9953036113
 20
162.7374739042
  0
ARC
  5
DB
330
1F
100
AcDbEntity
  8
0
  6
Continuous
 62
     7
370
    25
100
AcDbCircle
 10
398.1191517154
 20
23.3383714566
 30
0.0
 40
294.2404083249015
100
AcDbArc
 50
150.5512837547
 51
151.7214073238
  0
ARC
  5
DC
330
1F
100
AcDbEntity
  8
0
  6
Continuous
 62
     7
370
    25
100
AcDbCircle
 10
148.895738
 20
168.0
 30
0.0
 40
7.000000000000078
100
AcDbArc
 50
179.9999931565
 51
270.0000113184
  0
LWPOLYLINE
  5
DD
330
1F
100
AcDbEntity
  8
0
  6
Continuous
 62
     7
370
    25
100
AcDbPolyline
 90
       10
 70
   128
 43
0.0
 10
143.424558669
 20
158.6038642187
 10
143.8192615159
 20
158.775921934
 10
144.2381048148
 20
158.9591262029
 10
144.6807890832
 20
159.1531663465
 10
145.1469053355
 20
159.3576180894
 10
145.6363068426
 20
159.5723292171
 10
146.1488869824
 20
159.7971891214
 10
146.92559887
 20
160.1364457133
 10
147.838779094
 20
160.5348498894
 10
148.8957393744
 20
160.9999867178
  0
LWPOLYLINE
  5
DE
330
1F
100
AcDbEntity
  8
0
  6
Continuous
 62
     7
370
    25
100
AcDbPolyline
 90
       23
 70
   128
 43
0.0
 10
162.8953955094
 20
155.3007368242
 10
162.7955536368
 20
155.4831554567
 10
162.7107602448
 20
155.6342739304
 10
162.6016562808
 20
155.8325750226
 10
162.4783351832
 20
156.0564067827
 10
162.2964609815
 20
156.3867157262
 10
162.0968875693
 20
156.7501342969
 10
161.8980439016
 20
157.1109828004
 10
161.6962843068
 20
157.4760227453
 10
161.4922380646
 20
157.8446013261
 10
161.286476967
 20
158.2161253747
 10
161.1804892041
 20
158.4083888405
 10
161.0670740646
 20
158.6156911226
 10
160.945324264
 20
158.8394663687
 10
160.8217412954
 20
159.0627996604
 10
160.720550692
 20
159.2441252182
 10
160.5320362924
 20
159.5868871286
 10
160.3497697303
 20
159.9177657897
 10
160.172116593
 20
160.2399021672
 10
159.9031725504
 20
160.7275155191
 10
159.6285583705
 20
161.2266772739
 10
159.264243966
 20
161.8898793858
 10
158.7964418345
 20
162.7374733016
  0
ARC
  5
DF
330
1F
100
AcDbEntity
  8
0
  6
Continuous
 62
     7
370
    25
100
AcDbCircle
 10
162.5968665998
 20
155.2988472042
 30
0.0
 40
0.298672937051408
100
AcDbArc
 50
269.7303470796
 51
0.3622436752
  0
LWPOLYLINE
  5
E0
330
1F
100
AcDbEntity
  8
0
  6
Continuous
 62
     7
370
    25
100
AcDbPolyline
 90
       20
 70
   128
 43
0.0
 10
162.5954609119
 20
155.000229962
 10
162.4691916059
 20
155.0571099712
 10
162.2600425758
 20
155.1471945478
 10
161.9796722638
 20
155.2696193048
 10
161.6779268843
 20
155.4019393436
 10
161.3588467607
 20
155.5414868456
 10
160.8864921381
 20
155.7490789445
 10
160.3439692302
 20
155.9857200191
 10
159.7858753
 20
156.2307156405
 10
159.2713911001
 20
156.4556258711
 10
158.8154397604
 20
156.6568967854
 10
158.2286328747
 20
156.9116830655
 10
157.625206824
 20
157.1766400909
 10
157.1406936684
 20
157.3897706706
 10
156.7350640139
 20
157.5664823295
 10
156.2845743991
 20
157.7631444185
 10
155.8225360786
 20
157.9651176235
 10
155.3488893195
 20
158.1726593083
 10
154.8636887794
 20
158.3855339762
 10
154.366917376
 20
158.6038152275
  0
LWPOLYLINE
  5
E1
330
1F
100
AcDbEntity
  8
0
  6
Continuous
 62
     7
370
    25
100
AcDbPolyline
 90
        9
 70
   128
 43
0.0
 10
148.8957393912
 20
160.9999867179
 10
149.6742074535
 20
160.6566064349
 10
150.305621832
 20
160.3813134698
 10
150.8152554312
 20
160.1595022008
 10
151.375984295
 20
159.9142688922
 10
151.9263857832
 20
159.6729408611
 10
152.8862846046
 20
159.2524291137
 10
153.7259879153
 20
158.8865852721
 10
154.366917331
 20
158.6038642187
  0
ARC
  5
E2
330
1F
100
AcDbEntity
  8
0
  6
Continuous
 62
     7
370
    25
100
AcDbCircle
 10
148.895738
 20
168.0
 30
0.0
 40
6.999999999999995
100
AcDbArc
 50
270.0000113184
 51
0.0002035273
  0
LWPOLYLINE
  5
E3
330
1F
100
AcDbEntity
  8
0
  6
Continuous
 62
     7
370
    25
100
AcDbPolyline
 90
       12
 70
   128
 43
0.0
 10
158.7964418345
 20
162.7374733016
 10
158.5100057198
 20
163.2621438309
 10
158.2610654777
 20
163.7108791227
 10
158.0608453115
 20
164.072035358
 10
157.802543624
 20
164.5409161043
 10
157.5242471243
 20
165.0460245984
 10
157.2249198924
 20
165.5884354881
 10
156.9651068205
 20
166.0594590778
 10
156.6807862563
 20
166.5755030678
 10
156.3701321122
 20
167.1384618135
 10
156.0804383606
 20
167.6620425086
 10
155.8957253281
 20
168.0000247768
  0
LWPOLYLINE
  5
E4
330
1F
100
AcDbEntity
  8
0
  6
Continuous
 62
     7
370
    25
100
AcDbPolyline
 90
        9
 70
   128
 43
0.0
 10
148.8957379993
 20
180.9998378506
 10
148.8959709714
 20
180.8008632703
 10
148.8959580743
 20
180.5703418931
 10
148.8957825673
 20
180.3086324496
 10
148.8954217322
 20
180.0156370561
 10
148.8948411217
 20
179.6912072931
 10
148.8930122257
 20
178.987039924
 10
148.8925696316
 20
178.2187002033
 10
148.895738
 20
177.3957732927
  0
LINE
  5
E5
330
1F
100
AcDbEntity
  8
0
  6
Continuous
 62
     7
370
    25
100
AcDbLine
 10
148.8957379995
 20
180.9998370523
 30
0.0
 11
162.5954553996
 21
180.9998224439
 31
0.0
  0
LWPOLYLINE
  5
E6
330
1F
100
AcDbEntity
  8
0
  6
Continuous
 62
     7
370
    25
100
AcDbPolyline
 90
        5
 70
   128
 43
0.0
 10
148.8957379999
 20
177.1851195838
 10
148.8953072813
 20
176.7168551594
 10
148.8947699459
 20
176.1948842191
 10
148.8951172583
 20
175.6234777213
 10
148.895738007
 20
175.0000022028
  0
LWPOLYLINE
  5
E7
330
1F
100
AcDbEntity
  8
0
  6
Continuous
 62
     7
370
    25
100
AcDbPolyline
 90
        3
 70
   128
 43
0.0
 10
148.895738
 20
177.3957732927
 10
148.8952159457
 20
177.2782763971
 10
148.8957379999
 20
177.1851195838
  0
LWPOLYLINE
  5
E8
330
1F
100
AcDbEntity
  8
0
  6
Continuous
 62
     7
370
    25
100
AcDbPolyline
 90
        9
 70
   128
 43
0.0
 10
148.895746798
 20
155.0001621513
 10
148.8955039864
 20
155.1991809867
 10
148.8955119537
 20
155.429739379
 10
148.8956859164
 20
155.6914720307
 10
148.8960472586
 20
155.9844710765
 10
148.8966291309
 20
156.3088793497
 10
148.8984604553
 20
157.0130321203
 10
148.8989050305
 20
157.7813432415
 10
148.895738
 20
158.6042267073
  0
LINE
  5
E9
330
1F
100
AcDbEntity
  8
0
  6
Continuous
 62
     7
370
    25
100
AcDbLine
 10
148.8957467979
 20
155.0001629482
 30
0.0
 11
135.1960205919
 21
155.0001775563
 31
0.0
  0
LWPOLYLINE
  5
EA
330
1F
100
AcDbEntity
  8
0
  6
Continuous
 62
     7
370
    25
100
AcDbPolyline
 90
        5
 70
   128
 43
0.0
 10
148.8957380001
 20
158.8148804162
 10
148.896166316
 20
159.2831377497
 10
148.8967027337
 20
159.8051050323
 10
148.8963564856
 20
160.3765134468
 10
148.8957393797
 20
160.9999990262
  0
LWPOLYLINE
  5
EB
330
1F
100
AcDbEntity
  8
0
  6
Continuous
 62
     7
370
    25
100
AcDbPolyline
 90
        3
 70
   128
 43
0.0
 10
148.895738
 20
158.6042267073
 10
148.8962600543
 20
158.7217236029
 10
148.8957380001
 20
158.8148804162
  0
LINE
  5
EC
330
1F
100
AcDbEntity
  8
0
  6
Continuous
 62
     7
370
    25
100
AcDbLine
 10
135.1960150568
 20
180.9998224253
 30
0.0
 11
148.8957379995
 21
180.9998370523
 31
0.0
  0
LINE
  5
ED
330
1F
100
AcDbEntity
  8
0
  6
Continuous
 62
     7
370
    25
100
AcDbLine
 10
162.5954609512
 20
155.0001775749
 30
0.0
 11
148.8957467979
 21
155.0001629482
 31
0.0
  0
LINE
  5
EE
330
1F
100
AcDbEntity
  8
0
  6
Continuous
 62
     7
370
    25
100
AcDbLine
 10
134.8959465623
 20
155.3007017957
 30
0.0
 11
134.8958858147
 21
167.9999921373
 31
0.0
  0
LWPOLYLINE
  5
EF
330
1F
100
AcDbEntity
  8
0
  6
Continuous
 62
     7
370
    25
100
AcDbPolyline
 90
        7
 70
   128
 43
0.0
 10
138.995165703
 20
167.9999999998
 10
137.7399914118
 20
168.0026042717
 10
136.5771225398
 20
168.0004009698
 10
136.0817903991
 20
167.9998279282
 10
135.6623278946
 20
167.998795493
 10
135.2639918014
 20
167.9981186054
 10
134.895908679
 20
167.999992143
  0
LWPOLYLINE
  5
F0
330
1F
100
AcDbEntity
  8
0
  6
Continuous
 62
     7
370
    25
100
AcDbPolyline
 90
        5
 70
   128
 43
0.0
 10
141.4420800871
 20
167.9999999999
 10
140.7209365278
 20
168.0005731988
 10
140.0753968428
 20
168.0014041136
 10
139.4992882831
 20
168.0010082387
 10
138.995165703
 20
167.9999999998
  0
LWPOLYLINE
  5
F1
330
1F
100
AcDbEntity
  8
0
  6
Continuous
 62
     7
370
    25
100
AcDbPolyline
 90
        3
 70
   128
 43
0.0
 10
141.4420800871
 20
167.9999999999
 10
141.6066335766
 20
167.9993017407
 10
141.7769939542
 20
168.0
  0
LWPOLYLINE
  5
F2
330
1F
100
AcDbEntity
  8
0
  6
Continuous
 62
     7
370
    25
100
AcDbPolyline
 90
        3
 70
   128
 43
0.0
 10
141.7769939542
 20
168.0
 10
141.8362608519
 20
168.000028704
 10
141.8957659599
 20
168.0000001199
  0
LINE
  5
F3
330
1F
100
AcDbEntity
  8
0
  6
Continuous
 62
     7
370
    25
100
AcDbLine
 10
162.8955294388
 20
180.699298189
 30
0.0
 11
162.8955901856
 21
167.9999989309
 31
0.0
  0
LWPOLYLINE
  5
F4
330
1F
100
AcDbEntity
  8
0
  6
Continuous
 62
     7
370
    25
100
AcDbPolyline
 90
        7
 70
   128
 43
0.0
 10
158.7963102302
 20
167.9999999998
 10
160.0542306752
 20
167.9973545591
 10
161.2200550313
 20
167.999595742
 10
161.7154417666
 20
168.0001695407
 10
162.1330301083
 20
168.0011802934
 10
162.5293957661
 20
168.0018426105
 10
162.8955673233
 20
167.9999989252
  0
LWPOLYLINE
  5
F5
330
1F
100
AcDbEntity
  8
0
  6
Continuous
 62
     7
370
    25
100
AcDbPolyline
 90
        5
 70
   128
 43
0.0
 10
156.3493959129
 20
168.0000000001
 10
157.07053946
 20
167.9994268011
 10
157.7160791278
 20
167.9985958857
 10
158.2921876681
 20
167.9989917602
 10
158.7963102302
 20
167.9999999998
  0
LWPOLYLINE
  5
F6
330
1F
100
AcDbEntity
  8
0
  6
Continuous
 62
     7
370
    25
100
AcDbPolyline
 90
        3
 70
   128
 43
0.0
 10
156.3493959129
 20
168.0000000001
 10
156.1848424056
 20
168.0006982594
 10
156.0144820091
 20
168.0000000001
  0
LWPOLYLINE
  5
F7
330
1F
100
AcDbEntity
  8
0
  6
Continuous
 62
     7
370
    25
100
AcDbPolyline
 90
        3
 70
   128
 43
0.0
 10
156.0144820091
 20
168.0000000001
 10
155.9552144509
 20
167.9999846793
 10
155.8957088051
 20
168.0000266171
  0
LINE
  5
F8
330
1F
100
AcDbEntity
  8
0
  6
Continuous
 62
     7
370
    25
100
AcDbLine
 10
134.8958858147
 20
167.9999921373
 30
0.0
 11
134.8959424313
 21
180.6992644808
 31
0.0
  0
LINE
  5
F9
330
1F
100
AcDbEntity
  8
0
  6
Continuous
 62
     7
370
    25
100
AcDbLine
 10
162.8955901856
 20
167.9999989309
 30
0.0
 11
162.8955335676
 21
155.3007355049
 31
0.0
  0
LINE
  5
FA
330
1F
100
AcDbEntity
  8
0
  6
Continuous
 62
     7
370
    25
100
AcDbLine
 10
133.9900720027
 20
153.0943340027
 30
0.0
 11
163.8014039973
 21
153.0943340027
 31
0.0
  0
LINE
  5
FB
330
1F
100
AcDbEntity
  8
0
  6
Continuous
 62
     7
370
    25
100
AcDbLine
 10
133.9900720027
 20
182.9056659973
 30
0.0
 11
133.9900720027
 21
153.0943340027
 31
0.0
  0
LINE
  5
FC
330
1F
100
AcDbEntity
  8
0
  6
Continuous
 62
     7
370
    25
100
AcDbLine
 10
133.9900720027
 20
182.9056659973
 30
0.0
 11
163.8014039973
 21
182.9056659973
 31
0.0
  0
LINE
  5
FD
330
1F
100
AcDbEntity
  8
0
  6
Continuous
 62
     7
370
    25
100
AcDbLine
 10
163.8014039973
 20
182.9056659973
 30
0.0
 11
163.8014039973
 21
153.0943340027
 31
0.0
  0
LINE
  5
FE
330
1F
100
AcDbEntity
  8
0
  6
Continuous
 62
     7
370
    25
100
AcDbLine
 10
133.8957528126
 20
182.9999996573
 30
0.0
 11
133.9900720027
 21
182.9056659973
 31
0.0
  0
LINE
  5
FF
330
1F
100
AcDbEntity
  8
0
  6
Continuous
 62
     7
370
    25
100
AcDbLine
 10
133.9900720027
 20
153.0943340027
 30
0.0
 11
133.8957653172
 21
152.9999999194
 31
0.0
  0
LINE
  5
100
330
1F
100
AcDbEntity
  8
0
  6
Continuous
 62
     7
370
    25
100
AcDbLine
 10
133.8957653172
 20
152.9999999124
 30
0.0
 11
133.8958175002
 21
154.4002696452
 31
0.0
  0
LINE
  5
101
330
1F
100
AcDbEntity
  8
0
  6
Continuous
 62
     7
370
    25
100
AcDbLine
 10
133.8958001684
 20
181.599834851
 30
0.0
 11
133.8957528126
 21
182.9999996501
 31
0.0
  0
LINE
  5
102
330
1F
100
AcDbEntity
  8
0
  6
Continuous
 62
     7
370
    25
100
AcDbLine
 10
133.8957397362
 20
181.599834851
 30
0.0
 11
133.8957383955
 21
154.4002696452
 31
0.0
  0
LINE
  5
103
330
1F
100
AcDbEntity
  8
0
  6
Continuous
 62
     7
370
    25
100
AcDbLine
 10
163.8014039973
 20
182.9056659973
 30
0.0
 11
163.8957116181
 21
182.9999999955
 31
0.0
  0
LINE
  5
104
330
1F
100
AcDbEntity
  8
0
  6
Continuous
 62
     7
370
    25
100
AcDbLine
 10
163.8957116181
 20
183.0000000022
 30
0.0
 11
163.8956605273
 21
181.5995297544
 31
0.0
  0
LINE
  5
105
330
1F
100
AcDbEntity
  8
0
  6
Continuous
 62
     7
370
    25
100
AcDbLine
 10
163.89573623
 20
154.4001308685
 30
0.0
 11
163.8957370478
 21
181.5995297544
 31
0.0
  0
LINE
  5
106
330
1F
100
AcDbEntity
  8
0
  6
Continuous
 62
     7
370
    25
100
AcDbLine
 10
163.8956757453
 20
154.4001308685
 30
0.0
 11
163.8957231739
 21
153.00000035
 31
0.0
  0
LINE
  5
107
330
1F
100
AcDbEntity
  8
0
  6
Continuous
 62
     7
370
    25
100
AcDbLine
 10
163.8014039973
 20
153.0943340027
 30
0.0
 11
163.8957376175
 21
153.0000003825
 31
0.0
  0
LINE
  5
108
330
1F
100
AcDbEntity
  8
0
  6
Continuous
 62
     7
370
    25
100
AcDbLine
 10
133.8957528126
 20
182.9999996501
 30
0.0
 11
163.8957116181
 21
183.0000000022
 31
0.0
  0
LINE
  5
109
330
1F
100
AcDbEntity
  8
0
  6
Continuous
 62
     7
370
    25
100
AcDbLine
 10
163.8957231739
 20
153.00000035
 30
0.0
 11
133.8957653172
 21
152.9999999124
 31
0.0
  0
LINE
  5
10A
330
1F
100
AcDbEntity
  8
0
  6
Continuous
 62
     7
370
    25
100
AcDbLine
 10
164.4807864376
 20
166.0
 30
0.0
 11
164.4807864376
 21
170.0
 31
0.0
  0
LINE
  5
10B
330
1F
100
AcDbEntity
  8
0
  6
Continuous
 62
     7
370
    25
100
AcDbLine
 10
102.8192135624
 20
168.0
 30
0.0
 11
102.8192135624
 21
166.0
 31
0.0
  0
LINE
  5
10C
330
1F
100
AcDbEntity
  8
0
  6
Continuous
 62
     7
370
    25
100
AcDbLine
 10
102.8192135624
 20
170.0
 30
0.0
 11
102.8192135624
 21
168.0
 31
0.0
  0
LINE
  5
10D
330
1F
100
AcDbEntity
  8
0
  6
Continuous
 62
     7
370
    25
100
AcDbLine
 10
167.095
 20
383.0979064329
 30
0.0
 11
166.645
 21
382.6479064329
 31
0.0
  0
LINE
  5
10E
330
1F
100
AcDbEntity
  8
0
  6
Continuous
 62
     7
370
    25
100
AcDbLine
 10
166.645
 20
375.1479064329
 30
0.0
 11
167.095
 21
374.6979064329
 31
0.0
  0
LINE
  5
10F
330
1F
100
AcDbEntity
  8
0
  6
Continuous
 62
     7
370
    25
100
AcDbLine
 10
167.595
 20
383.0979064329
 30
0.0
 11
167.095
 21
383.0979064329
 31
0.0
  0
LINE
  5
110
330
1F
100
AcDbEntity
  8
0
  6
Continuous
 62
     7
370
    25
100
AcDbLine
 10
167.095
 20
374.6979064329
 30
0.0
 11
167.595
 21
374.6979064329
 31
0.0
  0
LINE
  5
111
330
1F
100
AcDbEntity
  8
0
  6
Continuous
 62
     7
370
    25
100
AcDbLine
 10
99.705
 20
374.6979064329
 30
0.0
 11
100.205
 21
374.6979064329
 31
0.0
  0
LINE
  5
112
330
1F
100
AcDbEntity
  8
0
  6
Continuous
 62
     7
370
    25
100
AcDbLine
 10
100.205
 20
383.0979064329
 30
0.0
 11
99.705
 21
383.0979064329
 31
0.0
  0
LINE
  5
113
330
1F
100
AcDbEntity
  8
0
  6
Continuous
 62
     7
370
    25
100
AcDbLine
 10
100.205
 20
374.6979064329
 30
0.0
 11
100.655
 21
375.1479064329
 31
0.0
  0
LINE
  5
114
330
1F
100
AcDbEntity
  8
0
  6
Continuous
 62
     7
370
    25
100
AcDbLine
 10
100.655
 20
382.6479064329
 30
0.0
 11
100.205
 21
383.0979064329
 31
0.0
  0
LINE
  5
115
330
1F
100
AcDbEntity
  8
0
  6
Continuous
 62
     7
370
    25
100
AcDbLine
 10
100.655
 20
385.3979064329
 30
0.0
 11
100.655
 21
315.3979064329
 31
0.0
  0
LINE
  5
116
330
1F
100
AcDbEntity
  8
0
  6
Continuous
 62
     7
370
    25
100
AcDbLine
 10
100.655
 20
385.3979064329
 30
0.0
 11
166.645
 21
385.3979064329
 31
0.0
  0
LINE
  5
117
330
1F
100
AcDbEntity
  8
0
  6
Continuous
 62
     7
370
    25
100
AcDbLine
 10
100.655
 20
315.3979064329
 30
0.0
 11
166.645
 21
315.3979064329
 31
0.0
  0
LINE
  5
118
330
1F
100
AcDbEntity
  8
0
  6
Continuous
 62
     7
370
    25
100
AcDbLine
 10
166.645
 20
385.3979064329
 30
0.0
 11
166.645
 21
315.3979064329
 31
0.0
  0
LINE
  5
119
330
1F
100
AcDbEntity
  8
0
  6
Continuous
 62
     7
370
    25
100
AcDbLine
 10
167.095
 20
383.0979064329
 30
0.0
 11
167.095
 21
374.6979064329
 31
0.0
  0
LINE
  5
11A
330
1F
100
AcDbEntity
  8
0
  6
Continuous
 62
     7
370
    25
100
AcDbLine
 10
167.595
 20
383.0979064329
 30
0.0
 11
167.595
 21
374.6979064329
 31
0.0
  0
LINE
  5
11B
330
1F
100
AcDbEntity
  8
0
  6
Continuous
 62
     7
370
    25
100
AcDbLine
 10
99.705
 20
374.6979064329
 30
0.0
 11
99.705
 21
383.0979064329
 31
0.0
  0
LINE
  5
11C
330
1F
100
AcDbEntity
  8
0
  6
Continuous
 62
     7
370
    25
100
AcDbLine
 10
100.205
 20
374.6979064329
 30
0.0
 11
100.205
 21
383.0979064329
 31
0.0
  0
LINE
  5
11D
330
1F
100
AcDbEntity
  8
0
  6
Continuous
 62
     7
370
    25
100
AcDbLine
 10
390.9479064329
 20
186.0
 30
0.0
 11
320.9479064329
 21
186.0
 31
0.0
  0
LINE
  5
11E
330
1F
100
AcDbEntity
  8
0
  6
Continuous
 62
     7
370
    25
100
AcDbLine
 10
390.9479064329
 20
186.0
 30
0.0
 11
390.9479064329
 21
150.0
 31
0.0
  0
LINE
  5
11F
330
1F
100
AcDbEntity
  8
0
  6
Continuous
 62
     7
370
    25
100
AcDbLine
 10
390.9479064329
 20
150.0
 30
0.0
 11
320.9479064329
 21
150.0
 31
0.0
  0
LINE
  5
120
330
1F
100
AcDbEntity
  8
0
  6
Continuous
 62
     7
370
    25
100
AcDbLine
 10
320.9479064329
 20
186.0
 30
0.0
 11
320.9479064329
 21
150.0
 31
0.0
  0
LINE
  5
121
330
1F
100
AcDbEntity
  8
0
  6
Continuous
 62
     7
370
    25
100
AcDbLine
 10
386.6479064329
 20
168.515
 30
0.0
 11
386.6479064329
 21
167.485
 31
0.0
  0
LINE
  5
122
330
1F
100
AcDbEntity
  8
0
  6
Continuous
 62
     7
370
    25
100
AcDbLine
 10
385.3358876883
 20
168.515
 30
0.0
 11
386.6479064329
 21
168.515
 31
0.0
  0
ARC
  5
123
330
1F
100
AcDbEntity
  8
0
  6
Continuous
 62
     7
370
    25
100
AcDbCircle
 10
384.4479064329
 20
168.0
 30
0.0
 40
1.026516297978189
100
AcDbArc
 50
30.1123267747
 51
59.8876732253
  0
LINE
  5
124
330
1F
100
AcDbEntity
  8
0
  6
Continuous
 62
     7
370
    25
100
AcDbLine
 10
384.9629064329
 20
170.2
 30
0.0
 11
384.9629064329
 21
168.8879812554
 31
0.0
  0
LINE
  5
125
330
1F
100
AcDbEntity
  8
0
  6
Continuous
 62
     7
370
    25
100
AcDbLine
 10
383.9329064329
 20
170.2
 30
0.0
 11
384.9629064329
 21
170.2
 31
0.0
  0
LINE
  5
126
330
1F
100
AcDbEntity
  8
0
  6
Continuous
 62
     7
370
    25
100
AcDbLine
 10
383.9329064329
 20
168.8879812554
 30
0.0
 11
383.9329064329
 21
170.2
 31
0.0
  0
ARC
  5
127
330
1F
100
AcDbEntity
  8
0
  6
Continuous
 62
     7
370
    25
100
AcDbCircle
 10
384.4479064329
 20
168.0
 30
0.0
 40
1.026516297978218
100
AcDbArc
 50
120.1123267747
 51
149.8876732253
  0
LINE
  5
128
330
1F
100
AcDbEntity
  8
0
  6
Continuous
 62
     7
370
    25
100
AcDbLine
 10
382.2479064329
 20
168.515
 30
0.0
 11
383.5599251774
 21
168.515
 31
0.0
  0
LINE
  5
129
330
1F
100
AcDbEntity
  8
0
  6
Continuous
 62
     7
370
    25
100
AcDbLine
 10
382.2479064329
 20
167.485
 30
0.0
 11
382.2479064329
 21
168.515
 31
0.0
  0
LINE
  5
12A
330
1F
100
AcDbEntity
  8
0
  6
Continuous
 62
     7
370
    25
100
AcDbLine
 10
383.5599251774
 20
167.485
 30
0.0
 11
382.2479064329
 21
167.485
 31
0.0
  0
ARC
  5
12B
330
1F
100
AcDbEntity
  8
0
  6
Continuous
 62
     7
370
    25
100
AcDbCircle
 10
384.4479064329
 20
168.0
 30
0.0
 40
1.026516297978218
100
AcDbArc
 50
210.1123267747
 51
239.8876732253
  0
LINE
  5
12C
330
1F
100
AcDbEntity
  8
0
  6
Continuous
 62
     7
370
    25
100
AcDbLine
 10
383.9329064329
 20
165.8
 30
0.0
 11
383.9329064329
 21
167.1120187446
 31
0.0
  0
LINE
  5
12D
330
1F
100
AcDbEntity
  8
0
  6
Continuous
 62
     7
370
    25
100
AcDbLine
 10
384.9629064329
 20
165.8
 30
0.0
 11
383.9329064329
 21
165.8
 31
0.0
  0
LINE
  5
12E
330
1F
100
AcDbEntity
  8
0
  6
Continuous
 62
     7
370
    25
100
AcDbLine
 10
384.9629064329
 20
167.1120187446
 30
0.0
 11
384.9629064329
 21
165.8
 31
0.0
  0
ARC
  5
12F
330
1F
100
AcDbEntity
  8
0
  6
Continuous
 62
     7
370
    25
100
AcDbCircle
 10
384.4479064329
 20
168.0
 30
0.0
 40
1.026516297978204
100
AcDbArc
 50
300.1123267747
 51
329.8876732253
  0
LINE
  5
130
330
1F
100
AcDbEntity
  8
0
  6
Continuous
 62
     7
370
    25
100
AcDbLine
 10
386.6479064329
 20
167.485
 30
0.0
 11
385.3358876883
 21
167.485
 31
0.0
  0
CIRCLE
  5
131
330
1F
100
AcDbEntity
  8
0
  6
Continuous
 62
     7
370
    25
100
AcDbCircle
 10
384.4479064329
 20
168.0
 30
0.0
 40
4.199999999999989
  0
LINE
  5
132
330
1F
100
AcDbEntity
  8
0
  6
Continuous
 62
     7
370
    25
100
AcDbLine
 10
385.3964668059
 20
168.515
 30
0.0
 11
385.3964668059
 21
167.485
 31
0.0
  0
ARC
  5
133
330
1F
100
AcDbEntity
  8
0
  6
Continuous
 62
     7
370
    25
100
AcDbCircle
 10
384.4479064329
 20
168.0
 30
0.0
 40
0.8509999999999849
100
AcDbArc
 50
37.2411038472
 51
52.7588961528
  0
LINE
  5
134
330
1F
100
AcDbEntity
  8
0
  6
Continuous
 62
     7
370
    25
100
AcDbLine
 10
384.9629064329
 20
168.6774776749
 30
0.0
 11
384.9629064329
 21
168.8879812554
 31
0.0
  0
LINE
  5
135
330
1F
100
AcDbEntity
  8
0
  6
Continuous
 62
     7
370
    25
100
AcDbLine
 10
385.3358876883
 20
168.515
 30
0.0
 11
385.1253841078
 21
168.515
 31
0.0
  0
LINE
  5
136
330
1F
100
AcDbEntity
  8
0
  6
Continuous
 62
     7
370
    25
100
AcDbLine
 10
383.9329064329
 20
168.8879812554
 30
0.0
 11
383.9329064329
 21
168.6774776749
 31
0.0
  0
ARC
  5
137
330
1F
100
AcDbEntity
  8
0
  6
Continuous
 62
     7
370
    25
100
AcDbCircle
 10
384.4479064329
 20
168.0
 30
0.0
 40
0.8510000000000302
100
AcDbArc
 50
127.2411038472
 51
142.7588961528
  0
LINE
  5
138
330
1F
100
AcDbEntity
  8
0
  6
Continuous
 62
     7
370
    25
100
AcDbLine
 10
383.770428758
 20
168.515
 30
0.0
 11
383.5599251774
 21
168.515
 31
0.0
  0
ARC
  5
139
330
1F
100
AcDbEntity
  8
0
  6
Continuous
 62
     7
370
    25
100
AcDbCircle
 10
384.4479064329
 20
168.0
 30
0.0
 40
0.8510000000000075
100
AcDbArc
 50
307.2411038472
 51
322.7588961528
  0
LINE
  5
13A
330
1F
100
AcDbEntity
  8
0
  6
Continuous
 62
     7
370
    25
100
AcDbLine
 10
384.9629064329
 20
167.1120187446
 30
0.0
 11
384.9629064329
 21
167.3225223251
 31
0.0
  0
LINE
  5
13B
330
1F
100
AcDbEntity
  8
0
  6
Continuous
 62
     7
370
    25
100
AcDbLine
 10
385.1253841078
 20
167.485
 30
0.0
 11
385.3358876883
 21
167.485
 31
0.0
  0
LINE
  5
13C
330
1F
100
AcDbEntity
  8
0
  6
Continuous
 62
     7
370
    25
100
AcDbLine
 10
383.9329064329
 20
168.9485603731
 30
0.0
 11
384.9629064329
 21
168.9485603731
 31
0.0
  0
LINE
  5
13D
330
1F
100
AcDbEntity
  8
0
  6
Continuous
 62
     7
370
    25
100
AcDbLine
 10
383.4993460598
 20
167.485
 30
0.0
 11
383.4993460598
 21
168.515
 31
0.0
  0
LINE
  5
13E
330
1F
100
AcDbEntity
  8
0
  6
Continuous
 62
     7
370
    25
100
AcDbLine
 10
384.9629064329
 20
167.0514396269
 30
0.0
 11
383.9329064329
 21
167.0514396269
 31
0.0
  0
ARC
  5
13F
330
1F
100
AcDbEntity
  8
0
  6
Continuous
 62
     7
370
    25
100
AcDbCircle
 10
384.4479064329
 20
168.0
 30
0.0
 40
0.8510000000000474
100
AcDbArc
 50
217.2411038472
 51
232.7588961528
  0
LINE
  5
140
330
1F
100
AcDbEntity
  8
0
  6
Continuous
 62
     7
370
    25
100
AcDbLine
 10
383.9329064329
 20
167.3225223251
 30
0.0
 11
383.9329064329
 21
167.1120187446
 31
0.0
  0
LINE
  5
141
330
1F
100
AcDbEntity
  8
0
  6
Continuous
 62
     7
370
    25
100
AcDbLine
 10
383.5599251774
 20
167.485
 30
0.0
 11
383.770428758
 21
167.485
 31
0.0
  0
ARC
  5
142
330
1F
100
AcDbEntity
  8
0
  6
Continuous
 62
     7
370
    25
100
AcDbCircle
 10
384.4479064329
 20
168.0
 30
0.0
 40
0.8510000000000021
100
AcDbArc
 50
322.7588961528
 51
37.2411038472
  0
ARC
  5
143
330
1F
100
AcDbEntity
  8
0
  6
Continuous
 62
     7
370
    25
100
AcDbCircle
 10
384.4479064329
 20
168.0
 30
0.0
 40
0.8510000000000474
100
AcDbArc
 50
142.7588961528
 51
217.2411038472
  0
ARC
  5
144
330
1F
100
AcDbEntity
  8
0
  6
Continuous
 62
     7
370
    25
100
AcDbCircle
 10
384.4479064329
 20
168.0
 30
0.0
 40
0.851000000000042
100
AcDbArc
 50
232.7588961528
 51
307.2411038472
  0
ARC
  5
145
330
1F
100
AcDbEntity
  8
0
  6
Continuous
 62
     7
370
    25
100
AcDbCircle
 10
384.4479064329
 20
168.0
 30
0.0
 40
0.8510000000000194
100
AcDbArc
 50
52.7588961528
 51
127.2411038472
  0
INSERT
  5
151
330
1F
100
AcDbEntity
  8
0
  6
Continuous
 62
     7
370
    18
100
AcDbBlockReference
  2
SW_CENTERMARKSYMBOL_0
 10
384.4479064329
 20
168.0
 30
0.0
  0
ENDSEC
  0
SECTION
  2
OBJECTS
  0
DICTIONARY
  5
C
330
0
100
AcDbDictionary
281
     1
  3
ACAD_GROUP
350
D
  3
ACAD_LAYOUT
350
1A
  3
ACAD_MLINESTYLE
350
17
  3
ACAD_PLOTSETTINGS
350
19
  3
ACAD_PLOTSTYLENAME
350
E
  3
ACAD_SCALELIST
350
47
  3
DWGPROPS
350
152
  0
DICTIONARY
  5
D
102
{ACAD_REACTORS
330
C
102
}
330
C
100
AcDbDictionary
281
     1
  0
DICTIONARY
  5
1A
102
{ACAD_REACTORS
330
C
102
}
330
C
100
AcDbDictionary
281
     1
  3
Layout1
350
1E
  3
Layout2
350
26
  3
Model
350
22
  0
DICTIONARY
  5
17
102
{ACAD_REACTORS
330
C
102
}
330
C
100
AcDbDictionary
281
     1
  3
Standard
350
18
  0
DICTIONARY
  5
19
102
{ACAD_REACTORS
330
C
102
}
330
C
100
AcDbDictionary
281
     1
  0
ACDBDICTIONARYWDFLT
  5
E
102
{ACAD_REACTORS
330
C
102
}
330
C
100
AcDbDictionary
281
     1
  3
Normal
350
F
100
AcDbDictionaryWithDefault
340
F
  0
DICTIONARY
  5
47
102
{ACAD_REACTORS
330
C
102
}
330
C
100
AcDbDictionary
281
     1
  3
A0
350
48
  3
A1
350
49
  3
A2
350
4A
  3
A3
350
4B
  3
A4
350
4C
  3
A5
350
4D
  3
A6
350
4E
  3
A7
350
4F
  3
A8
350
50
  3
A9
350
51
  3
B0
350
52
  3
B1
350
53
  3
B2
350
54
  3
B3
350
55
  3
B4
350
56
  3
B5
350
57
  3
B6
350
58
  0
XRECORD
  5
152
102
{ACAD_REACTORS
330
C
102
}
330
C
100
AcDbXrecord
280
     1
  1
DWGPROPS COOKIE
  2

  3

  4

  6

  7

  8
SKriemadi
  9

300
=
301
=
302
=
303
=
304
=
305
=
306
=
307
=
308
=
309
=
 40
0.0
 41
2460088.43081412
 42
2460088.430814467
  1

 90
        0
  0
LAYOUT
  5
1E
102
{ACAD_REACTORS
330
1A
102
}
330
1A
100
AcDbPlotSettings
  1

  2
none_device
  4

  6

 40
0.0
 41
0.0
 42
0.0
 43
0.0
 44
0.0
 45
0.0
 46
0.0
 47
0.0
 48
0.0
 49
0.0
140
0.0
141
0.0
142
1.0
143
1.0
 70
   688
 72
     1
 73
     0
 74
     5
  7

 75
    16
147
1.0
148
0.0
149
0.0
100
AcDbLayout
  1
Layout1
 70
     1
 71
     1
 10
0.0
 20
0.0
 11
420.0
 21
297.0
 12
0.0
 22
0.0
 32
0.0
 14
1.0000000000E+20
 24
1.0000000000E+20
 34
1.0000000000E+20
 15
-1.0000000000E+20
 25
-1.0000000000E+20
 35
-1.0000000000E+20
146
0.0
 13
0.0
 23
0.0
 33
0.0
 16
1.0
 26
0.0
 36
0.0
 17
0.0
 27
1.0
 37
0.0
 76
     0
330
1B
  0
LAYOUT
  5
26
102
{ACAD_REACTORS
330
1A
102
}
330
1A
100
AcDbPlotSettings
  1

  2
none_device
  4

  6

 40
0.0
 41
0.0
 42
0.0
 43
0.0
 44
0.0
 45
0.0
 46
0.0
 47
0.0
 48
0.0
 49
0.0
140
0.0
141
0.0
142
1.0
143
1.0
 70
   688
 72
     1
 73
     0
 74
     5
  7

 75
    16
147
1.0
148
0.0
149
0.0
100
AcDbLayout
  1
Layout2
 70
     1
 71
     2
 10
0.0
 20
0.0
 11
0.0
 21
0.0
 12
0.0
 22
0.0
 32
0.0
 14
0.0
 24
0.0
 34
0.0
 15
0.0
 25
0.0
 35
0.0
146
0.0
 13
0.0
 23
0.0
 33
0.0
 16
1.0
 26
0.0
 36
0.0
 17
0.0
 27
1.0
 37
0.0
 76
     0
330
23
  0
LAYOUT
  5
22
102
{ACAD_REACTORS
330
1A
102
}
330
1A
100
AcDbPlotSettings
  1

  2
none_device
  4
Letter_(8.50_x_11.00_Inches)
  6

 40
6.35
 41
6.35
 42
6.35000508
 43
6.35000508
 44
215.9
 45
279.4
 46
0.0
 47
0.0
 48
0.0
 49
0.0
140
0.0
141
0.0
142
1.0
143
1.0
 70
  1712
 72
     1
 73
     0
 74
     0
  7

 75
     0
147
1.0
148
0.0
149
0.0
100
AcDbLayout
  1
Model
 70
     1
 71
     0
 10
0.0
 20
0.0
 11
594.0
 21
420.0
 12
0.0
 22
0.0
 32
0.0
 14
0.0
 24
0.0
 34
0.0
 15
594.0
 25
420.0
 35
0.0
146
0.0
 13
0.0
 23
0.0
 33
0.0
 16
1.0
 26
0.0
 36
0.0
 17
0.0
 27
1.0
 37
0.0
 76
     0
330
1F
331
29
  0
MLINESTYLE
  5
18
102
{ACAD_REACTORS
330
17
102
}
330
17
100
AcDbMlineStyle
  2
Standard
 70
     0
  3

 62
   256
 51
90.0
 52
90.0
 71
     2
 49
0.5
 62
   256
  6
BYLAYER
 49
-0.5
 62
   256
  6
BYLAYER
  0
ACDBPLACEHOLDER
  5
F
102
{ACAD_REACTORS
330
E
102
}
330
E
  0
SCALE
  5
48
102
{ACAD_REACTORS
330
47
102
}
330
47
100
AcDbScale
 70
     0
300
1:1
140
1.0
141
1.0
290
     1
  0
SCALE
  5
49
102
{ACAD_REACTORS
330
47
102
}
330
47
100
AcDbScale
 70
     0
300
1:2
140
1.0
141
2.0
290
     0
  0
SCALE
  5
4A
102
{ACAD_REACTORS
330
47
102
}
330
47
100
AcDbScale
 70
     0
300
1:4
140
1.0
141
4.0
290
     0
  0
SCALE
  5
4B
102
{ACAD_REACTORS
330
47
102
}
330
47
100
AcDbScale
 70
     0
300
1:5
140
1.0
141
5.0
290
     0
  0
SCALE
  5
4C
102
{ACAD_REACTORS
330
47
102
}
330
47
100
AcDbScale
 70
     0
300
1:8
140
1.0
141
8.0
290
     0
  0
SCALE
  5
4D
102
{ACAD_REACTORS
330
47
102
}
330
47
100
AcDbScale
 70
     0
300
1:10
140
1.0
141
10.0
290
     0
  0
SCALE
  5
4E
102
{ACAD_REACTORS
330
47
102
}
330
47
100
AcDbScale
 70
     0
300
1:16
140
1.0
141
16.0
290
     0
  0
SCALE
  5
4F
102
{ACAD_REACTORS
330
47
102
}
330
47
100
AcDbScale
 70
     0
300
1:20
140
1.0
141
20.0
290
     0
  0
SCALE
  5
50
102
{ACAD_REACTORS
330
47
102
}
330
47
100
AcDbScale
 70
     0
300
1:30
140
1.0
141
30.0
290
     0
  0
SCALE
  5
51
102
{ACAD_REACTORS
330
47
102
}
330
47
100
AcDbScale
 70
     0
300
1:40
140
1.0
141
40.0
290
     0
  0
SCALE
  5
52
102
{ACAD_REACTORS
330
47
102
}
330
47
100
AcDbScale
 70
     0
300
1:50
140
1.0
141
50.0
290
     0
  0
SCALE
  5
53
102
{ACAD_REACTORS
330
47
102
}
330
47
100
AcDbScale
 70
     0
300
1:100
140
1.0
141
100.0
290
     0
  0
SCALE
  5
54
102
{ACAD_REACTORS
330
47
102
}
330
47
100
AcDbScale
 70
     0
300
2:1
140
2.0
141
1.0
290
     0
  0
SCALE
  5
55
102
{ACAD_REACTORS
330
47
102
}
330
47
100
AcDbScale
 70
     0
300
4:1
140
4.0
141
1.0
290
     0
  0
SCALE
  5
56
102
{ACAD_REACTORS
330
47
102
}
330
47
100
AcDbScale
 70
     0
300
8:1
140
8.0
141
1.0
290
     0
  0
SCALE
  5
57
102
{ACAD_REACTORS
330
47
102
}
330
47
100
AcDbScale
 70
     0
300
10:1
140
10.0
141
1.0
290
     0
  0
SCALE
  5
58
102
{ACAD_REACTORS
330
47
102
}
330
47
100
AcDbScale
 70
     0
300
100:1
140
100.0
141
1.0
290
     0
  0
ENDSEC
  0
EOF
