  0
SECTION
  2
HEADER
  9
$ACADVER
  1
AC1015
  9
$ACADMAINTVER
 70
     6
  9
$DWGCODEPAGE
  3
ANSI_1253
  9
$INSBASE
 10
0.0
 20
0.0
 30
0.0
  9
$EXTMIN
 10
0.0
 20
0.0
 30
0.0
  9
$EXTMAX
 10
297.0
 20
210.0
 30
0.0
  9
$LIMMIN
 10
0.0
 20
0.0
  9
$LIMMAX
 10
297.0
 20
210.0
  9
$ORTHOMODE
 70
     0
  9
$REGENMODE
 70
     1
  9
$FILLMODE
 70
     1
  9
$QTEXTMODE
 70
     0
  9
$MIRRTEXT
 70
     1
  9
$LTSCALE
 40
1.0
  9
$ATTMODE
 70
     1
  9
$TEXTSIZE
 40
3.0
  9
$TRACEWID
 40
1.0
  9
$TEXTSTYLE
  7
Standard
  9
$CLAYER
  8
0
  9
$CELTYPE
  6
ByLayer
  9
$CECOLOR
 62
   256
  9
$CELTSCALE
 40
1.0
  9
$DISPSILH
 70
     0
  9
$DIMSCALE
 40
1.0
  9
$DIMASZ
 40
3.302
  9
$DIMEXO
 40
0.5
  9
$DIMDLI
 40
3.75
  9
$DIMRND
 40
0.0
  9
$DIMDLE
 40
0.0
  9
$DIMEXE
 40
0.5
  9
$DIMTP
 40
0.0
  9
$DIMTM
 40
0.0
  9
$DIMTXT
 40
3.0
  9
$DIMCEN
 40
2.5
  9
$DIMTSZ
 40
0.0
  9
$DIMTOL
 70
     0
  9
$DIMLIM
 70
     0
  9
$DIMTIH
 70
     1
  9
$DIMTOH
 70
     1
  9
$DIMSE1
 70
     0
  9
$DIMSE2
 70
     0
  9
$DIMTAD
 70
     1
  9
$DIMZIN
 70
     1
  9
$DIMBLK
  1

  9
$DIMASO
 70
     1
  9
$DIMSHO
 70
     1
  9
$DIMPOST
  1

  9
$DIMAPOST
  1

  9
$DIMALT
 70
     0
  9
$DIMALTD
 70
     3
  9
$DIMALTF
 40
0.0393700787
  9
$DIMLFAC
 40
1.0
  9
$DIMTOFL
 70
     1
  9
$DIMTVP
 40
0.0
  9
$DIMTIX
 70
     0
  9
$DIMSOXD
 70
     0
  9
$DIMSAH
 70
     0
  9
$DIMBLK1
  1

  9
$DIMBLK2
  1

  9
$DIMSTYLE
  2
ISO-25
  9
$DIMCLRD
 70
     0
  9
$DIMCLRE
 70
     0
  9
$DIMCLRT
 70
     0
  9
$DIMTFAC
 40
1.0
  9
$DIMGAP
 40
1.524
  9
$DIMJUST
 70
     0
  9
$DIMSD1
 70
     0
  9
$DIMSD2
 70
     0
  9
$DIMTOLJ
 70
     0
  9
$DIMTZIN
 70
     1
  9
$DIMALTZ
 70
     0
  9
$DIMALTTZ
 70
     0
  9
$DIMUPT
 70
     0
  9
$DIMDEC
 70
     1
  9
$DIMTDEC
 70
     1
  9
$DIMALTU
 70
     2
  9
$DIMALTTD
 70
     3
  9
$DIMTXSTY
  7
Standard
  9
$DIMAUNIT
 70
     0
  9
$DIMADEC
 70
     1
  9
$DIMALTRND
 40
0.0
  9
$DIMAZIN
 70
     0
  9
$DIMDSEP
 70
    44
  9
$DIMATFIT
 70
     3
  9
$DIMFRAC
 70
     0
  9
$DIMLDRBLK
  1

  9
$DIMLUNIT
 70
     2
  9
$DIMLWD
 70
    -2
  9
$DIMLWE
 70
    -2
  9
$DIMTMOVE
 70
     0
  9
$LUNITS
 70
     2
  9
$LUPREC
 70
     3
  9
$SKETCHINC
 40
1.0
  9
$FILLETRAD
 40
0.0
  9
$AUNITS
 70
     0
  9
$AUPREC
 70
     2
  9
$MENU
  1
.
  9
$ELEVATION
 40
0.0
  9
$PELEVATION
 40
0.0
  9
$THICKNESS
 40
0.0
  9
$LIMCHECK
 70
     0
  9
$CHAMFERA
 40
0.0
  9
$CHAMFERB
 40
0.0
  9
$CHAMFERC
 40
0.0
  9
$CHAMFERD
 40
0.0
  9
$SKPOLY
 70
     0
  9
$TDCREATE
 40
2460088.542830752
  9
$TDUCREATE
 40
2460088.417830752
  9
$TDUPDATE
 40
2460088.542831007
  9
$TDUUPDATE
 40
2460088.417831007
  9
$TDINDWG
 40
0.0000000116
  9
$TDUSRTIMER
 40
0.0000000116
  9
$USRTIMER
 70
     1
  9
$ANGBASE
 50
0.0
  9
$ANGDIR
 70
     0
  9
$PDMODE
 70
     0
  9
$PDSIZE
 40
-1.0
  9
$PLINEWID
 40
0.0
  9
$SPLFRAME
 70
     0
  9
$SPLINETYPE
 70
     6
  9
$SPLINESEGS
 70
     8
  9
$HANDSEED
  5
275
  9
$SURFTAB1
 70
     6
  9
$SURFTAB2
 70
     6
  9
$SURFTYPE
 70
     6
  9
$SURFU
 70
     6
  9
$SURFV
 70
     6
  9
$UCSBASE
  2

  9
$UCSNAME
  2

  9
$UCSORG
 10
0.0
 20
0.0
 30
0.0
  9
$UCSXDIR
 10
1.0
 20
0.0
 30
0.0
  9
$UCSYDIR
 10
0.0
 20
1.0
 30
0.0
  9
$UCSORTHOREF
  2

  9
$UCSORTHOVIEW
 70
     0
  9
$UCSORGTOP
 10
0.0
 20
0.0
 30
0.0
  9
$UCSORGBOTTOM
 10
0.0
 20
0.0
 30
0.0
  9
$UCSORGLEFT
 10
0.0
 20
0.0
 30
0.0
  9
$UCSORGRIGHT
 10
0.0
 20
0.0
 30
0.0
  9
$UCSORGFRONT
 10
0.0
 20
0.0
 30
0.0
  9
$UCSORGBACK
 10
0.0
 20
0.0
 30
0.0
  9
$PUCSBASE
  2

  9
$PUCSNAME
  2

  9
$PUCSORG
 10
0.0
 20
0.0
 30
0.0
  9
$PUCSXDIR
 10
1.0
 20
0.0
 30
0.0
  9
$PUCSYDIR
 10
0.0
 20
1.0
 30
0.0
  9
$PUCSORTHOREF
  2

  9
$PUCSORTHOVIEW
 70
     0
  9
$PUCSORGTOP
 10
0.0
 20
0.0
 30
0.0
  9
$PUCSORGBOTTOM
 10
0.0
 20
0.0
 30
0.0
  9
$PUCSORGLEFT
 10
0.0
 20
0.0
 30
0.0
  9
$PUCSORGRIGHT
 10
0.0
 20
0.0
 30
0.0
  9
$PUCSORGFRONT
 10
0.0
 20
0.0
 30
0.0
  9
$PUCSORGBACK
 10
0.0
 20
0.0
 30
0.0
  9
$USERI1
 70
     0
  9
$USERI2
 70
     0
  9
$USERI3
 70
     0
  9
$USERI4
 70
     0
  9
$USERI5
 70
     0
  9
$USERR1
 40
0.0
  9
$USERR2
 40
0.0
  9
$USERR3
 40
0.0
  9
$USERR4
 40
0.0
  9
$USERR5
 40
0.0
  9
$WORLDVIEW
 70
     1
  9
$SHADEDGE
 70
     3
  9
$SHADEDIF
 70
    70
  9
$TILEMODE
 70
     1
  9
$MAXACTVP
 70
    64
  9
$PINSBASE
 10
0.0
 20
0.0
 30
0.0
  9
$PLIMCHECK
 70
     0
  9
$PEXTMIN
 10
1.0000000000E+20
 20
1.0000000000E+20
 30
1.0000000000E+20
  9
$PEXTMAX
 10
-1.0000000000E+20
 20
-1.0000000000E+20
 30
-1.0000000000E+20
  9
$PLIMMIN
 10
0.0
 20
0.0
  9
$PLIMMAX
 10
420.0
 20
297.0
  9
$UNITMODE
 70
     0
  9
$VISRETAIN
 70
     1
  9
$PLINEGEN
 70
     0
  9
$PSLTSCALE
 70
     1
  9
$TREEDEPTH
 70
  3020
  9
$CMLSTYLE
  2
Standard
  9
$CMLJUST
 70
     0
  9
$CMLSCALE
 40
20.0
  9
$PROXYGRAPHICS
 70
     1
  9
$MEASUREMENT
 70
     1
  9
$CELWEIGHT
370
    -1
  9
$ENDCAPS
280
     0
  9
$JOINSTYLE
280
     0
  9
$LWDISPLAY
290
     1
  9
$INSUNITS
 70
     4
  9
$HYPERLINKBASE
  1

  9
$STYLESHEET
  1

  9
$XEDIT
290
     1
  9
$CEPSNTYPE
380
     0
  9
$PSTYLEMODE
290
     1
  9
$FINGERPRINTGUID
  2
{cba53f03-cd2c-48e6-b857-b3dd9a94cc7e}
  9
$VERSIONGUID
  2
{FAEB1C32-E019-11D5-929B-00C0DF256EC4}
  9
$EXTNAMES
290
     1
  9
$PSVPSCALE
 40
0.0
  9
$OLESTARTUP
290
     0
  0
ENDSEC
  0
SECTION
  2
CLASSES
  0
CLASS
  1
ACDBDICTIONARYWDFLT
  2
AcDbDictionaryWithDefault
  3
ObjectDBX Classes
 90
        0
280
     0
281
     0
  0
CLASS
  1
VISUALSTYLE
  2
AcDbVisualStyle
  3
ObjectDBX Classes
 90
     4095
280
     0
281
     0
  0
CLASS
  1
MATERIAL
  2
AcDbMaterial
  3
ObjectDBX Classes
 90
     1153
280
     0
281
     0
  0
CLASS
  1
SCALE
  2
AcDbScale
  3
ObjectDBX Classes
 90
     1153
280
     0
281
     0
  0
CLASS
  1
TABLESTYLE
  2
AcDbTableStyle
  3
ObjectDBX Classes
 90
     4095
280
     0
281
     0
  0
CLASS
  1
MLEADERSTYLE
  2
AcDbMLeaderStyle
  3
ACDB_MLEADERSTYLE_CLASS
 90
     4095
280
     0
281
     0
  0
CLASS
  1
SUN
  2
AcDbSun
  3
SCENEOE
 90
     1153
280
     0
281
     0
  0
CLASS
  1
ACDBPLACEHOLDER
  2
AcDbPlaceHolder
  3
ObjectDBX Classes
 90
        0
280
     0
281
     0
  0
CLASS
  1
LAYOUT
  2
AcDbLayout
  3
ObjectDBX Classes
 90
        0
280
     0
281
     0
  0
ENDSEC
  0
SECTION
  2
TABLES
  0
TABLE
  2
VPORT
  5
8
330
0
100
AcDbSymbolTable
 70
     1
  0
VPORT
  5
29
330
8
100
AcDbSymbolTableRecord
100
AcDbViewportTableRecord
  2
*Active
 70
     0
 10
0.0
 20
0.0
 11
1.0
 21
1.0
 12
148.5
 22
105.0
 13
0.0
 23
0.0
 14
10.0
 24
10.0
 15
10.0
 25
10.0
 16
0.0
 26
0.0
 36
1.0
 17
0.0
 27
0.0
 37
0.0
 40
210.0
 41
1.4142857143
 42
50.0
 43
0.0
 44
0.0
 50
0.0
 51
0.0
 71
     0
 72
  2000
 73
     1
 74
     3
 75
     0
 76
     0
 77
     0
 78
     0
281
     0
 65
     1
110
0.0
120
0.0
130
0.0
111
1.0
121
0.0
131
0.0
112
0.0
122
1.0
132
0.0
 79
     0
146
0.0
  0
ENDTAB
  0
TABLE
  2
LTYPE
  5
5
330
0
100
AcDbSymbolTable
 70
     6
  0
LTYPE
  5
14
330
5
100
AcDbSymbolTableRecord
100
AcDbLinetypeTableRecord
  2
ByBlock
 70
     0
  3

 72
    65
 73
     0
 40
0.0
  0
LTYPE
  5
15
330
5
100
AcDbSymbolTableRecord
100
AcDbLinetypeTableRecord
  2
ByLayer
 70
     0
  3

 72
    65
 73
     0
 40
0.0
  0
LTYPE
  5
16
330
5
100
AcDbSymbolTableRecord
100
AcDbLinetypeTableRecord
  2
Continuous
 70
     0
  3
Solid line
 72
    65
 73
     0
 40
0.0
  0
LTYPE
  5
5E
330
5
100
AcDbSymbolTableRecord
100
AcDbLinetypeTableRecord
  2
HIDDEN
 70
     0
  3
Hidden __ __ __ __ __ __ __ __ __ __ __ __ __ __
 72
    65
 73
     2
 40
1.905
 49
1.27
 74
     0
 49
-0.635
 74
     0
  0
LTYPE
  5
5F
330
5
100
AcDbSymbolTableRecord
100
AcDbLinetypeTableRecord
  2
PHANTOM
 70
     0
  3
Phantom ______  __  __  ______  __  __  ______
 72
    65
 73
     6
 40
12.7
 49
6.35
 74
     0
 49
-1.27
 74
     0
 49
1.27
 74
     0
 49
-1.27
 74
     0
 49
1.27
 74
     0
 49
-1.27
 74
     0
  0
LTYPE
  5
60
330
5
100
AcDbSymbolTableRecord
100
AcDbLinetypeTableRecord
  2
CENTER
 70
     0
  3
Center ____ _ ____ _ ____ _ ____ _ ____ _ ____
 72
    65
 73
     4
 40
10.16
 49
6.35
 74
     0
 49
-1.27
 74
     0
 49
1.27
 74
     0
 49
-1.27
 74
     0
  0
LTYPE
  5
61
330
5
100
AcDbSymbolTableRecord
100
AcDbLinetypeTableRecord
  2
CENTERX2
 70
     0
  3
Center (2x) ________  __  ________  __  _____
 72
    65
 73
     4
 40
20.32
 49
12.7
 74
     0
 49
-2.54
 74
     0
 49
2.54
 74
     0
 49
-2.54
 74
     0
  0
LTYPE
  5
62
330
5
100
AcDbSymbolTableRecord
100
AcDbLinetypeTableRecord
  2
DOT2
 70
     0
  3
Dot (.5x) ........................................
 72
    65
 73
     2
 40
0.635
 49
0.0
 74
     0
 49
-0.635
 74
     0
  0
ENDTAB
  0
TABLE
  2
LAYER
  5
2
330
0
100
AcDbSymbolTable
 70
     1
  0
LAYER
  5
10
330
2
100
AcDbSymbolTableRecord
100
AcDbLayerTableRecord
  2
0
 70
     0
 62
     7
  6
Continuous
370
    -3
390
F
  0
ENDTAB
  0
TABLE
  2
STYLE
  5
3
330
0
100
AcDbSymbolTable
 70
     1
  0
STYLE
  5
11
330
3
100
AcDbSymbolTableRecord
100
AcDbTextStyleTableRecord
  2
Standard
 70
     0
 40
0.0
 41
1.0
 50
0.0
 71
     0
 42
3.0
  3
txt
  4

  0
ENDTAB
  0
TABLE
  2
VIEW
  5
6
330
0
100
AcDbSymbolTable
 70
     0
  0
ENDTAB
  0
TABLE
  2
UCS
  5
7
330
0
100
AcDbSymbolTable
 70
     0
  0
ENDTAB
  0
TABLE
  2
APPID
  5
9
330
0
100
AcDbSymbolTable
 70
     1
  0
APPID
  5
12
330
9
100
AcDbSymbolTableRecord
100
AcDbRegAppTableRecord
  2
ACAD
 70
     0
  0
ENDTAB
  0
TABLE
  2
DIMSTYLE
  5
A
330
0
100
AcDbSymbolTable
 70
     1
100
AcDbDimStyleTable
  0
DIMSTYLE
105
27
330
A
100
AcDbSymbolTableRecord
100
AcDbDimStyleTableRecord
  2
ISO-25
 70
     0
 41
2.5
 42
0.625
 43
3.75
 44
1.25
 73
     0
 74
     0
 77
     1
 78
     8
140
2.5
141
2.5
143
0.0393700787
147
0.625
171
     3
172
     1
178
     0
271
     2
272
     2
274
     3
278
    44
283
     0
284
     8
340
11
  0
ENDTAB
  0
TABLE
  2
BLOCK_RECORD
  5
1
330
0
100
AcDbSymbolTable
 70
     7
  0
BLOCK_RECORD
  5
1F
330
1
100
AcDbSymbolTableRecord
100
AcDbBlockTableRecord
  2
*Model_Space
340
22
  0
BLOCK_RECORD
  5
1B
330
1
100
AcDbSymbolTableRecord
100
AcDbBlockTableRecord
  2
*Paper_Space
340
1E
  0
BLOCK_RECORD
  5
23
330
1
100
AcDbSymbolTableRecord
100
AcDbBlockTableRecord
  2
*Paper_Space0
340
26
  0
BLOCK_RECORD
  5
63
330
1
100
AcDbSymbolTableRecord
100
AcDbBlockTableRecord
  2
Block1
340
0
  0
BLOCK_RECORD
  5
10A
330
1
100
AcDbSymbolTableRecord
100
AcDbBlockTableRecord
  2
SW_CENTERMARKSYMBOL_0
340
0
102
{BLKREFS
331
115
102
}
  0
BLOCK_RECORD
  5
17E
330
1
100
AcDbSymbolTableRecord
100
AcDbBlockTableRecord
  2
SW_CENTERMARKSYMBOL_1
340
0
102
{BLKREFS
331
189
102
}
  0
BLOCK_RECORD
  5
18A
330
1
100
AcDbSymbolTableRecord
100
AcDbBlockTableRecord
  2
SW_CENTERMARKSYMBOL_2
340
0
102
{BLKREFS
331
195
102
}
  0
BLOCK_RECORD
  5
196
330
1
100
AcDbSymbolTableRecord
100
AcDbBlockTableRecord
  2
SW_CENTERMARKSYMBOL_3
340
0
102
{BLKREFS
331
1A1
102
}
  0
BLOCK_RECORD
  5
1A2
330
1
100
AcDbSymbolTableRecord
100
AcDbBlockTableRecord
  2
SW_CENTERMARKSYMBOL_4
340
0
102
{BLKREFS
331
1AD
102
}
  0
ENDTAB
  0
ENDSEC
  0
SECTION
  2
BLOCKS
  0
BLOCK
  5
20
330
1F
100
AcDbEntity
  8
0
100
AcDbBlockBegin
  2
*Model_Space
 70
     0
 10
0.0
 20
0.0
 30
0.0
  3
*Model_Space
  1

  0
ENDBLK
  5
21
330
1F
100
AcDbEntity
  8
0
100
AcDbBlockEnd
  0
BLOCK
  5
1C
330
1B
100
AcDbEntity
 67
     1
  8
0
100
AcDbBlockBegin
  2
*Paper_Space
 70
     0
 10
0.0
 20
0.0
 30
0.0
  3
*Paper_Space
  1

  0
ENDBLK
  5
1D
330
1B
100
AcDbEntity
 67
     1
  8
0
100
AcDbBlockEnd
  0
BLOCK
  5
24
330
23
100
AcDbEntity
  8
0
100
AcDbBlockBegin
  2
*Paper_Space0
 70
     0
 10
0.0
 20
0.0
 30
0.0
  3
*Paper_Space0
  1

  0
ENDBLK
  5
25
330
23
100
AcDbEntity
  8
0
100
AcDbBlockEnd
  0
BLOCK
  5
64
330
63
100
AcDbEntity
  8
0
100
AcDbBlockBegin
  2
Block1
 70
     0
 10
0.0
 20
0.0
 30
0.0
  3
Block1
  1

  0
CIRCLE
  5
66
330
63
100
AcDbEntity
  8
0
  6
Continuous
 62
     7
370
    18
100
AcDbCircle
 10
6.248070026
 20
0.0
 30
0.0
 40
1.988282521106477
  0
CIRCLE
  5
67
330
63
100
AcDbEntity
  8
0
  6
Continuous
 62
     7
370
    18
100
AcDbCircle
 10
6.248070026
 20
0.0
 30
0.0
 40
0.9482761577509786
  0
LINE
  5
68
330
63
100
AcDbEntity
  8
0
  6
Continuous
 62
     7
370
    18
100
AcDbLine
 10
-3.2378965263
 20
1.8463686505
 30
0.0
 11
-3.2378965263
 21
-1.9882825211
 31
0.0
  0
LINE
  5
69
330
63
100
AcDbEntity
  8
0
  6
Continuous
 62
     7
370
    18
100
AcDbLine
 10
-3.2378965263
 20
-1.9882825211
 30
0.0
 11
3.2919781237
 21
-0.9482761578
 31
0.0
  0
LINE
  5
6A
330
63
100
AcDbEntity
  8
0
  6
Continuous
 62
     7
370
    18
100
AcDbLine
 10
3.2919781237
 20
-0.9482761578
 30
0.0
 11
3.2919781237
 21
0.9331837441
 31
0.0
  0
LINE
  5
6B
330
63
100
AcDbEntity
  8
0
  6
Continuous
 62
     7
370
    18
100
AcDbLine
 10
3.2919781237
 20
0.9331837441
 30
0.0
 11
-3.2378965263
 21
1.8463686505
 31
0.0
  0
ENDBLK
  5
65
330
63
100
AcDbEntity
  8
0
100
AcDbBlockEnd
  0
BLOCK
  5
10B
330
10A
100
AcDbEntity
  8
0
100
AcDbBlockBegin
  2
SW_CENTERMARKSYMBOL_0
 70
     0
 10
0.0
 20
0.0
 30
0.0
  3
SW_CENTERMARKSYMBOL_0
  1

  0
LINE
  5
10D
330
10A
100
AcDbEntity
  8
0
  6
Continuous
 62
     0
370
    18
100
AcDbLine
 10
0.0
 20
0.0
 30
0.0
 11
0.0
 21
2.5
 31
0.0
  0
LINE
  5
10E
330
10A
100
AcDbEntity
  8
0
  6
Continuous
 62
     0
370
    18
100
AcDbLine
 10
0.0
 20
0.0
 30
0.0
 11
-2.5
 21
0.0
 31
0.0
  0
LINE
  5
10F
330
10A
100
AcDbEntity
  8
0
  6
Continuous
 62
     0
370
    18
100
AcDbLine
 10
0.0
 20
0.0
 30
0.0
 11
0.0
 21
-2.5
 31
0.0
  0
LINE
  5
110
330
10A
100
AcDbEntity
  8
0
  6
Continuous
 62
     0
370
    18
100
AcDbLine
 10
0.0
 20
0.0
 30
0.0
 11
2.5
 21
0.0
 31
0.0
  0
LINE
  5
111
330
10A
100
AcDbEntity
  8
0
  6
Continuous
 62
     0
370
    18
100
AcDbLine
 10
0.0
 20
5.0
 30
0.0
 11
0.0
 21
9.5
 31
0.0
  0
LINE
  5
112
330
10A
100
AcDbEntity
  8
0
  6
Continuous
 62
     0
370
    18
100
AcDbLine
 10
-5.0
 20
0.0
 30
0.0
 11
-9.5
 21
0.0
 31
0.0
  0
LINE
  5
113
330
10A
100
AcDbEntity
  8
0
  6
Continuous
 62
     0
370
    18
100
AcDbLine
 10
0.0
 20
-5.0
 30
0.0
 11
0.0
 21
-9.5
 31
0.0
  0
LINE
  5
114
330
10A
100
AcDbEntity
  8
0
  6
Continuous
 62
     0
370
    18
100
AcDbLine
 10
5.0
 20
0.0
 30
0.0
 11
9.5
 21
0.0
 31
0.0
  0
ENDBLK
  5
10C
330
10A
100
AcDbEntity
  8
0
100
AcDbBlockEnd
  0
BLOCK
  5
17F
330
17E
100
AcDbEntity
  8
0
100
AcDbBlockBegin
  2
SW_CENTERMARKSYMBOL_1
 70
     0
 10
0.0
 20
0.0
 30
0.0
  3
SW_CENTERMARKSYMBOL_1
  1

  0
LINE
  5
181
330
17E
100
AcDbEntity
  8
0
  6
Continuous
 62
     0
370
    18
100
AcDbLine
 10
0.0
 20
0.0
 30
0.0
 11
0.0
 21
2.5
 31
0.0
  0
LINE
  5
182
330
17E
100
AcDbEntity
  8
0
  6
Continuous
 62
     0
370
    18
100
AcDbLine
 10
0.0
 20
0.0
 30
0.0
 11
-2.5
 21
0.0
 31
0.0
  0
LINE
  5
183
330
17E
100
AcDbEntity
  8
0
  6
Continuous
 62
     0
370
    18
100
AcDbLine
 10
0.0
 20
0.0
 30
0.0
 11
0.0
 21
-2.5
 31
0.0
  0
LINE
  5
184
330
17E
100
AcDbEntity
  8
0
  6
Continuous
 62
     0
370
    18
100
AcDbLine
 10
0.0
 20
0.0
 30
0.0
 11
2.5
 21
0.0
 31
0.0
  0
LINE
  5
185
330
17E
100
AcDbEntity
  8
0
  6
Continuous
 62
     0
370
    18
100
AcDbLine
 10
0.0
 20
2.5
 30
0.0
 11
0.0
 21
2.99
 31
0.0
  0
LINE
  5
186
330
17E
100
AcDbEntity
  8
0
  6
Continuous
 62
     0
370
    18
100
AcDbLine
 10
-2.5
 20
0.0
 30
0.0
 11
-2.99
 21
0.0
 31
0.0
  0
LINE
  5
187
330
17E
100
AcDbEntity
  8
0
  6
Continuous
 62
     0
370
    18
100
AcDbLine
 10
0.0
 20
-2.5
 30
0.0
 11
0.0
 21
-2.99
 31
0.0
  0
LINE
  5
188
330
17E
100
AcDbEntity
  8
0
  6
Continuous
 62
     0
370
    18
100
AcDbLine
 10
2.5
 20
0.0
 30
0.0
 11
2.99
 21
0.0
 31
0.0
  0
ENDBLK
  5
180
330
17E
100
AcDbEntity
  8
0
100
AcDbBlockEnd
  0
BLOCK
  5
18B
330
18A
100
AcDbEntity
  8
0
100
AcDbBlockBegin
  2
SW_CENTERMARKSYMBOL_2
 70
     0
 10
0.0
 20
0.0
 30
0.0
  3
SW_CENTERMARKSYMBOL_2
  1

  0
LINE
  5
18D
330
18A
100
AcDbEntity
  8
0
  6
Continuous
 62
     0
370
    18
100
AcDbLine
 10
0.0
 20
0.0
 30
0.0
 11
0.0
 21
2.5
 31
0.0
  0
LINE
  5
18E
330
18A
100
AcDbEntity
  8
0
  6
Continuous
 62
     0
370
    18
100
AcDbLine
 10
0.0
 20
0.0
 30
0.0
 11
-2.5
 21
0.0
 31
0.0
  0
LINE
  5
18F
330
18A
100
AcDbEntity
  8
0
  6
Continuous
 62
     0
370
    18
100
AcDbLine
 10
0.0
 20
0.0
 30
0.0
 11
0.0
 21
-2.5
 31
0.0
  0
LINE
  5
190
330
18A
100
AcDbEntity
  8
0
  6
Continuous
 62
     0
370
    18
100
AcDbLine
 10
0.0
 20
0.0
 30
0.0
 11
2.5
 21
0.0
 31
0.0
  0
LINE
  5
191
330
18A
100
AcDbEntity
  8
0
  6
Continuous
 62
     0
370
    18
100
AcDbLine
 10
0.0
 20
2.5
 30
0.0
 11
0.0
 21
2.99
 31
0.0
  0
LINE
  5
192
330
18A
100
AcDbEntity
  8
0
  6
Continuous
 62
     0
370
    18
100
AcDbLine
 10
-2.5
 20
0.0
 30
0.0
 11
-2.99
 21
0.0
 31
0.0
  0
LINE
  5
193
330
18A
100
AcDbEntity
  8
0
  6
Continuous
 62
     0
370
    18
100
AcDbLine
 10
0.0
 20
-2.5
 30
0.0
 11
0.0
 21
-2.99
 31
0.0
  0
LINE
  5
194
330
18A
100
AcDbEntity
  8
0
  6
Continuous
 62
     0
370
    18
100
AcDbLine
 10
2.5
 20
0.0
 30
0.0
 11
2.99
 21
0.0
 31
0.0
  0
ENDBLK
  5
18C
330
18A
100
AcDbEntity
  8
0
100
AcDbBlockEnd
  0
BLOCK
  5
197
330
196
100
AcDbEntity
  8
0
100
AcDbBlockBegin
  2
SW_CENTERMARKSYMBOL_3
 70
     0
 10
0.0
 20
0.0
 30
0.0
  3
SW_CENTERMARKSYMBOL_3
  1

  0
LINE
  5
199
330
196
100
AcDbEntity
  8
0
  6
Continuous
 62
     0
370
    18
100
AcDbLine
 10
0.0
 20
0.0
 30
0.0
 11
0.0
 21
2.5
 31
0.0
  0
LINE
  5
19A
330
196
100
AcDbEntity
  8
0
  6
Continuous
 62
     0
370
    18
100
AcDbLine
 10
0.0
 20
0.0
 30
0.0
 11
-2.5
 21
0.0
 31
0.0
  0
LINE
  5
19B
330
196
100
AcDbEntity
  8
0
  6
Continuous
 62
     0
370
    18
100
AcDbLine
 10
0.0
 20
0.0
 30
0.0
 11
0.0
 21
-2.5
 31
0.0
  0
LINE
  5
19C
330
196
100
AcDbEntity
  8
0
  6
Continuous
 62
     0
370
    18
100
AcDbLine
 10
0.0
 20
0.0
 30
0.0
 11
2.5
 21
0.0
 31
0.0
  0
LINE
  5
19D
330
196
100
AcDbEntity
  8
0
  6
Continuous
 62
     0
370
    18
100
AcDbLine
 10
0.0
 20
2.5
 30
0.0
 11
0.0
 21
2.99
 31
0.0
  0
LINE
  5
19E
330
196
100
AcDbEntity
  8
0
  6
Continuous
 62
     0
370
    18
100
AcDbLine
 10
-2.5
 20
0.0
 30
0.0
 11
-2.99
 21
0.0
 31
0.0
  0
LINE
  5
19F
330
196
100
AcDbEntity
  8
0
  6
Continuous
 62
     0
370
    18
100
AcDbLine
 10
0.0
 20
-2.5
 30
0.0
 11
0.0
 21
-2.99
 31
0.0
  0
LINE
  5
1A0
330
196
100
AcDbEntity
  8
0
  6
Continuous
 62
     0
370
    18
100
AcDbLine
 10
2.5
 20
0.0
 30
0.0
 11
2.99
 21
0.0
 31
0.0
  0
ENDBLK
  5
198
330
196
100
AcDbEntity
  8
0
100
AcDbBlockEnd
  0
BLOCK
  5
1A3
330
1A2
100
AcDbEntity
  8
0
100
AcDbBlockBegin
  2
SW_CENTERMARKSYMBOL_4
 70
     0
 10
0.0
 20
0.0
 30
0.0
  3
SW_CENTERMARKSYMBOL_4
  1

  0
LINE
  5
1A5
330
1A2
100
AcDbEntity
  8
0
  6
Continuous
 62
     0
370
    18
100
AcDbLine
 10
0.0
 20
0.0
 30
0.0
 11
0.0
 21
2.5
 31
0.0
  0
LINE
  5
1A6
330
1A2
100
AcDbEntity
  8
0
  6
Continuous
 62
     0
370
    18
100
AcDbLine
 10
0.0
 20
0.0
 30
0.0
 11
-2.5
 21
0.0
 31
0.0
  0
LINE
  5
1A7
330
1A2
100
AcDbEntity
  8
0
  6
Continuous
 62
     0
370
    18
100
AcDbLine
 10
0.0
 20
0.0
 30
0.0
 11
0.0
 21
-2.5
 31
0.0
  0
LINE
  5
1A8
330
1A2
100
AcDbEntity
  8
0
  6
Continuous
 62
     0
370
    18
100
AcDbLine
 10
0.0
 20
0.0
 30
0.0
 11
2.5
 21
0.0
 31
0.0
  0
LINE
  5
1A9
330
1A2
100
AcDbEntity
  8
0
  6
Continuous
 62
     0
370
    18
100
AcDbLine
 10
0.0
 20
2.5
 30
0.0
 11
0.0
 21
2.99
 31
0.0
  0
LINE
  5
1AA
330
1A2
100
AcDbEntity
  8
0
  6
Continuous
 62
     0
370
    18
100
AcDbLine
 10
-2.5
 20
0.0
 30
0.0
 11
-2.99
 21
0.0
 31
0.0
  0
LINE
  5
1AB
330
1A2
100
AcDbEntity
  8
0
  6
Continuous
 62
     0
370
    18
100
AcDbLine
 10
0.0
 20
-2.5
 30
0.0
 11
0.0
 21
-2.99
 31
0.0
  0
LINE
  5
1AC
330
1A2
100
AcDbEntity
  8
0
  6
Continuous
 62
     0
370
    18
100
AcDbLine
 10
2.5
 20
0.0
 30
0.0
 11
2.99
 21
0.0
 31
0.0
  0
ENDBLK
  5
1A4
330
1A2
100
AcDbEntity
  8
0
100
AcDbBlockEnd
  0
ENDSEC
  0
SECTION
  2
ENTITIES
  0
LINE
  5
6C
330
1F
100
AcDbEntity
  8
0
  6
Continuous
 62
     7
370
    25
100
AcDbLine
 10
39.3826935756
 20
57.5981154767
 30
0.0
 11
39.3826935756
 21
71.3042573079
 31
0.0
  0
LINE
  5
6D
330
1F
100
AcDbEntity
  8
0
  6
Continuous
 62
     7
370
    25
100
AcDbLine
 10
38.4026935756
 20
71.4882419624
 30
0.0
 11
38.4026935756
 21
57.3803240756
 31
0.0
  0
LINE
  5
6E
330
1F
100
AcDbEntity
  8
0
  6
Continuous
 62
     7
370
    25
100
AcDbLine
 10
44.033466906
 20
58.5261601792
 30
0.0
 11
39.3826935756
 21
58.0338291047
 31
0.0
  0
LINE
  5
6F
330
1F
100
AcDbEntity
  8
0
  6
Continuous
 62
     7
370
    25
100
AcDbLine
 10
38.8359861535
 20
56.9904788194
 30
0.0
 11
44.033466906
 21
57.5406843663
 31
0.0
  0
LINE
  5
70
330
1F
100
AcDbEntity
  8
0
  6
Continuous
 62
     7
370
    25
100
AcDbLine
 10
39.3826935756
 20
70.9062496352
 30
0.0
 11
44.033466906
 21
70.9062496352
 31
0.0
  0
LINE
  5
71
330
1F
100
AcDbEntity
  8
0
  6
Continuous
 62
     7
370
    25
100
AcDbLine
 10
44.033466906
 20
71.8862496352
 30
0.0
 11
38.8007012484
 21
71.8862496352
 31
0.0
  0
LINE
  5
72
330
1F
100
AcDbEntity
  8
0
  6
Continuous
 62
     7
370
    25
100
AcDbLine
 10
89.616533094
 20
70.347914029
 30
0.0
 11
94.2673064244
 21
70.8402451035
 31
0.0
  0
LINE
  5
73
330
1F
100
AcDbEntity
  8
0
  6
Continuous
 62
     7
370
    25
100
AcDbLine
 10
94.8140138465
 20
71.8835953887
 30
0.0
 11
89.616533094
 21
71.3333898419
 31
0.0
  0
LINE
  5
74
330
1F
100
AcDbEntity
  8
0
  6
Continuous
 62
     7
370
    25
100
AcDbLine
 10
94.2673064244
 20
71.2759587315
 30
0.0
 11
94.2673064244
 21
57.5698169003
 31
0.0
  0
LINE
  5
75
330
1F
100
AcDbEntity
  8
0
  6
Continuous
 62
     7
370
    25
100
AcDbLine
 10
95.2473064244
 20
57.3858322458
 30
0.0
 11
95.2473064244
 21
71.4937501326
 31
0.0
  0
LINE
  5
76
330
1F
100
AcDbEntity
  8
0
  6
Continuous
 62
     7
370
    25
100
AcDbLine
 10
94.2673064244
 20
57.967824573
 30
0.0
 11
89.616533094
 21
57.967824573
 31
0.0
  0
LINE
  5
77
330
1F
100
AcDbEntity
  8
0
  6
Continuous
 62
     7
370
    25
100
AcDbLine
 10
89.616533094
 20
56.987824573
 30
0.0
 11
94.8492987516
 21
56.987824573
 31
0.0
  0
ARC
  5
78
330
1F
100
AcDbEntity
  8
0
  6
Continuous
 62
     7
370
    25
100
AcDbCircle
 10
66.8270816754
 20
64.7977272727
 30
0.0
 40
7.000000000000006
100
AcDbArc
 50
81.4668157048
 51
90.4930180885
  0
LWPOLYLINE
  5
79
330
1F
100
AcDbEntity
  8
0
  6
Continuous
 62
     7
370
    25
100
AcDbPolyline
 90
        3
 70
   128
 43
0.0
 10
73.8100111581
 20
65.2862923545
 10
73.8270816754
 20
64.7977272727
 10
73.8211164576
 20
64.5088026028
  0
LINE
  5
7A
330
1F
100
AcDbEntity
  8
0
  6
Continuous
 62
     7
370
    25
100
AcDbLine
 10
67.544576674
 20
57.8345957267
 30
0.0
 11
66.8270816754
 21
57.7977272727
 31
0.0
  0
LINE
  5
7B
330
1F
100
AcDbEntity
  8
0
  6
Continuous
 62
     7
370
    25
100
AcDbLine
 10
50.0726137149
 20
86.4374893701
 30
0.0
 11
50.0726137149
 21
83.2977272727
 31
0.0
  0
LWPOLYLINE
  5
7C
330
1F
100
AcDbEntity
  8
0
  6
Continuous
 62
     7
370
    25
100
AcDbPolyline
 90
        3
 70
   128
 43
0.0
 10
50.0726137149
 20
86.4374893701
 10
49.2698354235
 20
86.3725660905
 10
48.6529781475
 20
86.2335717672
  0
LINE
  5
7D
330
1F
100
AcDbEntity
  8
0
  6
Continuous
 62
     7
370
    25
100
AcDbLine
 10
44.9331562273
 20
81.2980318824
 30
0.0
 11
48.0729183246
 21
81.2980318824
 31
0.0
  0
LWPOLYLINE
  5
7E
330
1F
100
AcDbEntity
  8
0
  6
Continuous
 62
     7
370
    25
100
AcDbPolyline
 90
        3
 70
   128
 43
0.0
 10
45.0551259805
 20
82.3978297067
 10
44.9571196601
 20
81.7854643703
 10
44.9331562273
 20
81.2980318824
  0
LINE
  5
7F
330
1F
100
AcDbEntity
  8
0
  6
Continuous
 62
     7
370
    25
100
AcDbLine
 10
44.9331562273
 20
48.297422663
 30
0.0
 11
48.0729183246
 21
48.297422663
 31
0.0
  0
LWPOLYLINE
  5
80
330
1F
100
AcDbEntity
  8
0
  6
Continuous
 62
     7
370
    25
100
AcDbPolyline
 90
        3
 70
   128
 43
0.0
 10
44.9331562273
 20
48.297422663
 10
44.9986999855
 20
47.4908171468
 10
45.1390072984
 20
46.8711423838
  0
LINE
  5
81
330
1F
100
AcDbEntity
  8
0
  6
Continuous
 62
     7
370
    25
100
AcDbLine
 10
50.0726137149
 20
43.1579651754
 30
0.0
 11
50.0726137149
 21
46.2977272727
 31
0.0
  0
LWPOLYLINE
  5
82
330
1F
100
AcDbEntity
  8
0
  6
Continuous
 62
     7
370
    25
100
AcDbPolyline
 90
        3
 70
   128
 43
0.0
 10
48.9957572269
 20
43.2748822394
 10
49.595478025
 20
43.1809286039
 10
50.0726137149
 20
43.1579651754
  0
LINE
  5
83
330
1F
100
AcDbEntity
  8
0
  6
Continuous
 62
     7
370
    25
100
AcDbLine
 10
88.7168437727
 20
81.2980318824
 30
0.0
 11
85.5770816754
 21
81.2980318824
 31
0.0
  0
LWPOLYLINE
  5
84
330
1F
100
AcDbEntity
  8
0
  6
Continuous
 62
     7
370
    25
100
AcDbPolyline
 90
        3
 70
   128
 43
0.0
 10
88.7168437727
 20
81.2980318824
 10
88.645943731
 20
82.1369448643
 10
88.4943111767
 20
82.7803334407
  0
LINE
  5
85
330
1F
100
AcDbEntity
  8
0
  6
Continuous
 62
     7
370
    25
100
AcDbLine
 10
83.5773862851
 20
86.4374893701
 30
0.0
 11
83.5773862851
 21
83.2977272727
 31
0.0
  0
LWPOLYLINE
  5
86
330
1F
100
AcDbEntity
  8
0
  6
Continuous
 62
     7
370
    25
100
AcDbPolyline
 90
        3
 70
   128
 43
0.0
 10
85.1707070071
 20
86.179869345
 10
84.2886456741
 20
86.386519442
 10
83.5773862851
 20
86.4374893701
  0
LINE
  5
87
330
1F
100
AcDbEntity
  8
0
  6
Continuous
 62
     7
370
    25
100
AcDbLine
 10
84.3906134726
 20
42.9089165009
 30
0.0
 11
88.9658924472
 21
42.9089165009
 31
0.0
  0
LINE
  5
88
330
1F
100
AcDbEntity
  8
0
  6
Continuous
 62
     7
370
    25
100
AcDbLine
 10
83.5773862851
 20
42.9089165009
 30
0.0
 11
84.3857676846
 21
42.9717081118
 31
0.0
  0
LINE
  5
89
330
1F
100
AcDbEntity
  8
0
  6
Continuous
 62
     7
370
    25
100
AcDbLine
 10
50.0726137149
 20
42.9089165009
 30
0.0
 11
83.5773862851
 21
42.9089165009
 31
0.0
  0
LINE
  5
8A
330
1F
100
AcDbEntity
  8
0
  6
Continuous
 62
     7
370
    25
100
AcDbLine
 10
49.2642323247
 20
42.9717081104
 30
0.0
 11
50.0726137149
 21
42.9089165009
 31
0.0
  0
LINE
  5
8B
330
1F
100
AcDbEntity
  8
0
  6
Continuous
 62
     7
370
    25
100
AcDbLine
 10
49.2593865368
 20
42.9089165009
 30
0.0
 11
44.6841075528
 21
42.9089165009
 31
0.0
  0
LINE
  5
8C
330
1F
100
AcDbEntity
  8
0
  6
Continuous
 62
     7
370
    25
100
AcDbLine
 10
44.9331562273
 20
43.1579651754
 30
0.0
 11
44.6841075528
 21
42.9089165009
 31
0.0
  0
LINE
  5
8D
330
1F
100
AcDbEntity
  8
0
  6
Continuous
 62
     7
370
    25
100
AcDbLine
 10
44.6841075528
 20
42.9089165009
 30
0.0
 11
44.6841075528
 21
47.4841954848
 31
0.0
  0
LINE
  5
8E
330
1F
100
AcDbEntity
  8
0
  6
Continuous
 62
     7
370
    25
100
AcDbLine
 10
44.6841075528
 20
48.297422663
 30
0.0
 11
44.7468991623
 21
47.4890412727
 31
0.0
  0
LINE
  5
8F
330
1F
100
AcDbEntity
  8
0
  6
Continuous
 62
     7
370
    25
100
AcDbLine
 10
44.6841075528
 20
86.6865380446
 30
0.0
 11
44.6841075528
 21
48.297422663
 31
0.0
  0
LINE
  5
90
330
1F
100
AcDbEntity
  8
0
  6
Continuous
 62
     7
370
    25
100
AcDbLine
 10
44.9331562273
 20
86.4374893701
 30
0.0
 11
44.6841075528
 21
86.6865380446
 31
0.0
  0
LINE
  5
91
330
1F
100
AcDbEntity
  8
0
  6
Continuous
 62
     7
370
    25
100
AcDbLine
 10
44.6841075528
 20
86.6865380446
 30
0.0
 11
49.2593865405
 21
86.6865380446
 31
0.0
  0
LINE
  5
92
330
1F
100
AcDbEntity
  8
0
  6
Continuous
 62
     7
370
    25
100
AcDbLine
 10
50.0726137149
 20
86.6865380446
 30
0.0
 11
49.2642323283
 21
86.6237464356
 31
0.0
  0
LINE
  5
93
330
1F
100
AcDbEntity
  8
0
  6
Continuous
 62
     7
370
    25
100
AcDbLine
 10
83.5773862851
 20
86.6865380446
 30
0.0
 11
50.0726137149
 21
86.6865380446
 31
0.0
  0
LINE
  5
94
330
1F
100
AcDbEntity
  8
0
  6
Continuous
 62
     7
370
    25
100
AcDbLine
 10
84.3857676757
 20
86.623746435
 30
0.0
 11
83.5773862851
 21
86.6865380446
 31
0.0
  0
LINE
  5
95
330
1F
100
AcDbEntity
  8
0
  6
Continuous
 62
     7
370
    25
100
AcDbLine
 10
88.9658924472
 20
86.6865380446
 30
0.0
 11
84.3906134636
 21
86.6865380446
 31
0.0
  0
LINE
  5
96
330
1F
100
AcDbEntity
  8
0
  6
Continuous
 62
     7
370
    25
100
AcDbLine
 10
88.9658924472
 20
86.6865380446
 30
0.0
 11
88.7168437727
 21
86.4374893701
 31
0.0
  0
LINE
  5
97
330
1F
100
AcDbEntity
  8
0
  6
Continuous
 62
     7
370
    25
100
AcDbLine
 10
88.9658924472
 20
82.1112590615
 30
0.0
 11
88.9658924472
 21
86.6865380446
 31
0.0
  0
LINE
  5
98
330
1F
100
AcDbEntity
  8
0
  6
Continuous
 62
     7
370
    25
100
AcDbLine
 10
88.9658924472
 20
81.2980318824
 30
0.0
 11
88.9031008375
 21
82.1064132736
 31
0.0
  0
LINE
  5
99
330
1F
100
AcDbEntity
  8
0
  6
Continuous
 62
     7
370
    25
100
AcDbLine
 10
88.9658924472
 20
42.9089165009
 30
0.0
 11
88.9658924472
 21
81.2980318824
 31
0.0
  0
LINE
  5
9A
330
1F
100
AcDbEntity
  8
0
  6
Continuous
 62
     7
370
    25
100
AcDbLine
 10
88.9658924472
 20
42.9089165009
 30
0.0
 11
88.7168437727
 21
43.1579651754
 31
0.0
  0
LINE
  5
9B
330
1F
100
AcDbEntity
  8
0
  6
Continuous
 62
     7
370
    25
100
AcDbLine
 10
83.5773862851
 20
43.1579651754
 30
0.0
 11
83.5773862851
 21
46.2977272727
 31
0.0
  0
LWPOLYLINE
  5
9C
330
1F
100
AcDbEntity
  8
0
  6
Continuous
 62
     7
370
    25
100
AcDbPolyline
 90
        3
 70
   128
 43
0.0
 10
83.5773862851
 20
43.1579651754
 10
84.078821617
 20
43.1833227038
 10
84.4690886194
 20
43.2380740839
  0
LINE
  5
9D
330
1F
100
AcDbEntity
  8
0
  6
Continuous
 62
     7
370
    25
100
AcDbLine
 10
88.7168437727
 20
48.297422663
 30
0.0
 11
85.5770816754
 21
48.297422663
 31
0.0
  0
LWPOLYLINE
  5
9E
330
1F
100
AcDbEntity
  8
0
  6
Continuous
 62
     7
370
    25
100
AcDbPolyline
 90
        3
 70
   128
 43
0.0
 10
88.56239935
 20
47.0605530996
 10
88.6864419661
 20
47.7482898235
 10
88.7168437727
 20
48.297422663
  0
ELLIPSE
  5
9F
330
1F
100
AcDbEntity
  8
0
  6
Continuous
 62
     7
370
    25
100
AcDbEllipse
 10
82.5767769032
 20
49.2980320449
 30
0.0
 11
0.3539842722974385
 21
-0.3539842723017443
 31
0.0
210
0.0
220
0.0
230
1.0
 40
0.998782766
 41
5.498396131373856
 42
7.067974482997436
  0
LINE
  5
A0
330
1F
100
AcDbEntity
  8
0
  6
Continuous
 62
     7
370
    25
100
AcDbLine
 10
83.0770816754
 20
80.2980318592
 30
0.0
 11
83.0770816754
 21
49.2974226862
 31
0.0
  0
ELLIPSE
  5
A1
330
1F
100
AcDbEntity
  8
0
  6
Continuous
 62
     7
370
    25
100
AcDbEllipse
 10
82.5767769032
 20
80.2974225006
 30
0.0
 11
0.3539842722945678
 21
0.3539842723045865
 31
0.0
210
0.0
220
0.0
230
1.0
 40
0.998782766
 41
5.498396131353512
 42
7.067974482977259
  0
LINE
  5
A2
330
1F
100
AcDbEntity
  8
0
  6
Continuous
 62
     7
370
    25
100
AcDbLine
 10
51.0726137381
 20
80.7977272727
 30
0.0
 11
82.5773862619
 21
80.7977272727
 31
0.0
  0
ELLIPSE
  5
A3
330
1F
100
AcDbEntity
  8
0
  6
Continuous
 62
     7
370
    25
100
AcDbEllipse
 10
51.0732230968
 20
80.2974225006
 30
0.0
 11
-0.3539842723080184
 21
0.3539842722911857
 31
0.0
210
0.0
220
0.0
230
1.0
 40
0.998782766
 41
5.498396131344063
 42
7.067974482967599
  0
LINE
  5
A4
330
1F
100
AcDbEntity
  8
0
  6
Continuous
 62
     7
370
    25
100
AcDbLine
 10
50.5729183246
 20
49.2974226862
 30
0.0
 11
50.5729183246
 21
80.2980318592
 31
0.0
  0
ELLIPSE
  5
A5
330
1F
100
AcDbEntity
  8
0
  6
Continuous
 62
     7
370
    25
100
AcDbEllipse
 10
51.0732230968
 20
49.2980320449
 30
0.0
 11
-0.3539842723045084
 21
-0.3539842722947242
 31
0.0
210
0.0
220
0.0
230
1.0
 40
0.998782766
 41
5.498396131381597
 42
7.067974483005202
  0
LINE
  5
A6
330
1F
100
AcDbEntity
  8
0
  6
Continuous
 62
     7
370
    25
100
AcDbLine
 10
82.5773862619
 20
48.7977272727
 30
0.0
 11
51.0726137381
 21
48.7977272727
 31
0.0
  0
LINE
  5
A7
330
1F
100
AcDbEntity
  8
0
  6
Continuous
 62
     7
370
    25
100
AcDbLine
 10
89.4639897963
 20
42.4108191518
 30
0.0
 11
88.9658924472
 21
42.9089165009
 31
0.0
  0
LINE
  5
A8
330
1F
100
AcDbEntity
  8
0
  6
Continuous
 62
     7
370
    25
100
AcDbLine
 10
44.1860102037
 20
42.4108191518
 30
0.0
 11
89.4639897963
 21
42.4108191518
 31
0.0
  0
LINE
  5
A9
330
1F
100
AcDbEntity
  8
0
  6
Continuous
 62
     7
370
    25
100
AcDbLine
 10
44.6841075528
 20
42.9089165009
 30
0.0
 11
44.1860102037
 21
42.4108191518
 31
0.0
  0
LINE
  5
AA
330
1F
100
AcDbEntity
  8
0
  6
Continuous
 62
     7
370
    25
100
AcDbLine
 10
89.4639897963
 20
87.1846353936
 30
0.0
 11
88.9658924472
 21
86.6865380446
 31
0.0
  0
LINE
  5
AB
330
1F
100
AcDbEntity
  8
0
  6
Continuous
 62
     7
370
    25
100
AcDbLine
 10
89.4639897963
 20
42.4108191518
 30
0.0
 11
89.4639897963
 21
87.1846353936
 31
0.0
  0
LINE
  5
AC
330
1F
100
AcDbEntity
  8
0
  6
Continuous
 62
     7
370
    25
100
AcDbLine
 10
44.6841075528
 20
86.6865380446
 30
0.0
 11
44.1860102037
 21
87.1846353936
 31
0.0
  0
LINE
  5
AD
330
1F
100
AcDbEntity
  8
0
  6
Continuous
 62
     7
370
    25
100
AcDbLine
 10
89.4639897963
 20
87.1846353936
 30
0.0
 11
44.1860102037
 21
87.1846353936
 31
0.0
  0
LINE
  5
AE
330
1F
100
AcDbEntity
  8
0
  6
Continuous
 62
     7
370
    25
100
AcDbLine
 10
44.1860102037
 20
87.1846353936
 30
0.0
 11
44.1860102037
 21
42.4108191518
 31
0.0
  0
LINE
  5
AF
330
1F
100
AcDbEntity
  8
0
  6
Continuous
 62
     7
370
    25
100
AcDbLine
 10
81.8361756412
 20
79.057125825
 30
0.0
 11
83.0770816754
 21
80.2980318592
 31
0.0
  0
LINE
  5
B0
330
1F
100
AcDbEntity
  8
0
  6
Continuous
 62
     7
370
    25
100
AcDbLine
 10
83.0770816754
 20
49.2974226862
 30
0.0
 11
81.8361756412
 21
50.5383287205
 31
0.0
  0
LINE
  5
B1
330
1F
100
AcDbEntity
  8
0
  6
Continuous
 62
     7
370
    25
100
AcDbLine
 10
81.8361756412
 20
50.5383287205
 30
0.0
 11
81.8361756412
 21
79.057125825
 31
0.0
  0
LINE
  5
B2
330
1F
100
AcDbEntity
  8
0
  6
Continuous
 62
     7
370
    25
100
AcDbLine
 10
51.8138243588
 20
50.5383287205
 30
0.0
 11
50.5729183246
 21
49.2974226862
 31
0.0
  0
LINE
  5
B3
330
1F
100
AcDbEntity
  8
0
  6
Continuous
 62
     7
370
    25
100
AcDbLine
 10
50.5729183246
 20
80.2980318592
 30
0.0
 11
51.8138243588
 21
79.057125825
 31
0.0
  0
LINE
  5
B4
330
1F
100
AcDbEntity
  8
0
  6
Continuous
 62
     7
370
    25
100
AcDbLine
 10
51.8138243588
 20
79.057125825
 30
0.0
 11
51.8138243588
 21
50.5383287205
 31
0.0
  0
LINE
  5
B5
330
1F
100
AcDbEntity
  8
0
  6
Continuous
 62
     7
370
    25
100
AcDbLine
 10
89.616533094
 20
87.3371786913
 30
0.0
 11
89.4639897963
 21
87.1846353936
 31
0.0
  0
LINE
  5
B6
330
1F
100
AcDbEntity
  8
0
  6
Continuous
 62
     7
370
    25
100
AcDbLine
 10
89.616533094
 20
42.2582758541
 30
0.0
 11
89.616533094
 21
87.3371786913
 31
0.0
  0
LINE
  5
B7
330
1F
100
AcDbEntity
  8
0
  6
Continuous
 62
     7
370
    25
100
AcDbLine
 10
89.616533094
 20
42.2582758541
 30
0.0
 11
89.4639897963
 21
42.4108191518
 31
0.0
  0
LINE
  5
B8
330
1F
100
AcDbEntity
  8
0
  6
Continuous
 62
     7
370
    25
100
AcDbLine
 10
44.1860102037
 20
87.1846353936
 30
0.0
 11
44.033466906
 21
87.3371786913
 31
0.0
  0
LINE
  5
B9
330
1F
100
AcDbEntity
  8
0
  6
Continuous
 62
     7
370
    25
100
AcDbLine
 10
89.616533094
 20
87.3371786913
 30
0.0
 11
44.033466906
 21
87.3371786913
 31
0.0
  0
LINE
  5
BA
330
1F
100
AcDbEntity
  8
0
  6
Continuous
 62
     7
370
    25
100
AcDbLine
 10
44.033466906
 20
42.2582758541
 30
0.0
 11
89.616533094
 21
42.2582758541
 31
0.0
  0
LINE
  5
BB
330
1F
100
AcDbEntity
  8
0
  6
Continuous
 62
     7
370
    25
100
AcDbLine
 10
44.1860102037
 20
42.4108191518
 30
0.0
 11
44.033466906
 21
42.2582758541
 31
0.0
  0
LINE
  5
BC
330
1F
100
AcDbEntity
  8
0
  6
Continuous
 62
     7
370
    25
100
AcDbLine
 10
44.033466906
 20
87.3371786913
 30
0.0
 11
44.033466906
 21
42.2582758541
 31
0.0
  0
ELLIPSE
  5
BD
330
1F
100
AcDbEntity
  8
0
  6
Continuous
 62
     7
370
    25
100
AcDbEllipse
 10
38.8926935756
 20
57.4892197761
 30
0.0
 11
0.3659826750106063
 21
0.4067705691632781
 31
0.0
210
0.0
220
0.0
230
1.0
 40
0.8009845589
 41
3.766055405254681
 42
5.555781811531897
  0
ELLIPSE
  5
BE
330
1F
100
AcDbEntity
  8
0
  6
Continuous
 62
     7
370
    25
100
AcDbEllipse
 10
38.8926935756
 20
57.4892197761
 30
0.0
 11
0.3659826750106063
 21
0.4067705691632781
 31
0.0
210
0.0
220
0.0
230
1.0
 40
0.8009845589
 41
2.414189157942086
 42
3.766055405254711
  0
ELLIPSE
  5
BF
330
1F
100
AcDbEntity
  8
0
  6
Continuous
 62
     7
370
    25
100
AcDbEllipse
 10
38.8926935756
 20
71.3962496352
 30
0.0
 11
0.3776084217522566
 21
-0.3776084217522424
 31
0.0
210
0.0
220
0.0
230
0.9999999999999998
 40
0.8269649306
 41
0.6909680841313399
 42
2.450624569458419
  0
ELLIPSE
  5
C0
330
1F
100
AcDbEntity
  8
0
  6
Continuous
 62
     7
370
    25
100
AcDbEllipse
 10
38.8926935756
 20
71.3962496352
 30
0.0
 11
0.3776084217522566
 21
-0.3776084217522424
 31
0.0
210
0.0
220
0.0
230
0.9999999999999998
 40
0.8269649306
 41
2.450624569458419
 42
3.83256073772111
  0
ELLIPSE
  5
C1
330
1F
100
AcDbEntity
  8
0
  6
Continuous
 62
     7
370
    25
100
AcDbEllipse
 10
94.7573064244
 20
71.3848544321
 30
0.0
 11
0.3659826750106134
 21
0.406770569163271
 31
0.0
210
0.0
220
0.0
230
1.0
 40
0.8009845589
 41
0.6244627516648963
 42
2.414189157942127
  0
ELLIPSE
  5
C2
330
1F
100
AcDbEntity
  8
0
  6
Continuous
 62
     7
370
    25
100
AcDbEllipse
 10
94.7573064244
 20
71.3848544321
 30
0.0
 11
0.3659826750106134
 21
0.406770569163271
 31
0.0
210
0.0
220
0.0
230
1.0
 40
0.8009845589
 41
5.55578181153187
 42
6.907648058844511
  0
ELLIPSE
  5
C3
330
1F
100
AcDbEntity
  8
0
  6
Continuous
 62
     7
370
    25
100
AcDbEllipse
 10
94.7573064244
 20
57.477824573
 30
0.0
 11
-0.3776084217522425
 21
0.3776084217522496
 31
0.0
210
0.0
220
0.0
230
1.0
 40
0.8269649306
 41
0.6909680841313576
 42
2.450624569458491
  0
ELLIPSE
  5
C4
330
1F
100
AcDbEntity
  8
0
  6
Continuous
 62
     7
370
    25
100
AcDbEllipse
 10
94.7573064244
 20
57.477824573
 30
0.0
 11
-0.3776084217522425
 21
0.3776084217522496
 31
0.0
210
0.0
220
0.0
230
1.0
 40
0.8269649306
 41
2.450624569458462
 42
3.832560737721147
  0
ARC
  5
C5
330
1F
100
AcDbEntity
  8
0
  6
Continuous
 62
     7
370
    25
100
AcDbCircle
 10
281.2047109072
 20
198.525171016
 30
0.0
 40
258.4647086051025
100
AcDbArc
 50
207.9212821161
 51
209.8037519838
  0
ARC
  5
C6
330
1F
100
AcDbEntity
  8
0
  6
Continuous
 62
     7
370
    25
100
AcDbCircle
 10
53.1259530776
 20
77.4988800656
 30
0.0
 40
0.2986729402088258
100
AcDbArc
 50
89.7303459344
 51
180.3622458585
  0
LWPOLYLINE
  5
C7
330
1F
100
AcDbEntity
  8
0
  6
Continuous
 62
     7
370
    25
100
AcDbPolyline
 90
       22
 70
   128
 43
0.0
 10
53.1273587714
 20
77.7974973108
 10
53.2268562907
 20
77.7522795497
 10
53.3837807244
 20
77.6845557106
 10
53.5988144331
 20
77.5913857775
 10
53.8417937255
 20
77.4848388269
 10
54.0968699817
 20
77.3730184245
 10
54.3639695506
 20
77.2562419025
 10
54.8363236462
 20
77.0486500423
 10
55.3788439722
 20
76.8120100754
 10
55.9369400929
 20
76.5670135043
 10
56.4514246933
 20
76.3421031138
 10
56.9073769154
 20
76.1408317949
 10
57.4941850242
 20
75.8860449765
 10
58.0976121143
 20
75.6210875066
 10
58.5821269704
 20
75.4079561838
 10
58.9243471006
 20
75.2588906981
 10
59.3083528699
 20
75.091327862
 10
59.7008524801
 20
74.9198240325
 10
60.1018533598
 20
74.7443472032
 10
60.5113702447
 20
74.5648338839
 10
60.929406364
 20
74.3812701613
 10
61.3559022993
 20
74.1939120452
  0
LWPOLYLINE
  5
C8
330
1F
100
AcDbEntity
  8
0
  6
Continuous
 62
     7
370
    25
100
AcDbPolyline
 90
       10
 70
   128
 43
0.0
 10
66.8270816662
 20
71.7977417773
 10
66.048284496
 20
72.1412445521
 10
65.4162263351
 20
72.4168141663
 10
64.9057882399
 20
72.63898284
 10
64.3448484138
 20
72.8843217591
 10
63.7940080337
 20
73.1258516298
 10
63.0761817819
 20
73.4406481302
 10
62.3890536117
 20
73.7403058465
 10
61.8172948442
 20
73.9896474288
 10
61.3559023444
 20
74.193863054
  0
ARC
  5
C9
330
1F
100
AcDbEntity
  8
0
  6
Continuous
 62
     7
370
    25
100
AcDbCircle
 10
66.8270816754
 20
64.7977272727
 30
0.0
 40
7.000000000000121
100
AcDbArc
 50
90.0
 51
179.9999931565
  0
LWPOLYLINE
  5
CA
330
1F
100
AcDbEntity
  8
0
  6
Continuous
 62
     7
370
    25
100
AcDbPolyline
 90
       10
 70
   128
 43
0.0
 10
56.9263778409
 20
70.0602539712
 10
57.2016337654
 20
69.5537390749
 10
57.4136380481
 20
69.1737161664
 10
57.6016766826
 20
68.8355014707
 10
57.8111253492
 20
68.4544494632
 10
58.0513750664
 20
68.0187794387
 10
58.2809717223
 20
67.6033480459
 10
58.4980715324
 20
67.2100679992
 10
59.1834509333
 20
65.9685044799
 10
59.8270950715
 20
64.7977280903
  0
LWPOLYLINE
  5
CB
330
1F
100
AcDbEntity
  8
0
  6
Continuous
 62
     7
370
    25
100
AcDbPolyline
 90
       15
 70
   128
 43
0.0
 10
72.2982610514
 20
74.1939120452
 10
74.3471006631
 20
75.0912568127
 10
76.152597177
 20
75.8816506478
 10
76.5244965377
 20
76.0445137194
 10
76.8841455411
 20
76.2020432868
 10
77.2315401269
 20
76.3542218561
 10
77.5666777536
 20
76.5010384773
 10
77.889557379
 20
76.6424886594
 10
78.2001782817
 20
76.7785692946
 10
78.4985377999
 20
76.9092689144
 10
79.0520557592
 20
77.151694271
 10
79.5529598779
 20
77.3710824993
 10
79.9650413443
 20
77.5512992089
 10
80.2784310929
 20
77.6875174025
 10
80.5267990357
 20
77.7974973155
  0
ARC
  5
CC
330
1F
100
AcDbEntity
  8
0
  6
Continuous
 62
     7
370
    25
100
AcDbCircle
 10
80.528158102
 20
77.4988323312
 30
0.0
 40
0.2987204768604493
100
AcDbArc
 50
359.6534331008
 51
90.2606676996
  0
LWPOLYLINE
  5
CD
330
1F
100
AcDbEntity
  8
0
  6
Continuous
 62
     7
370
    25
100
AcDbPolyline
 90
       13
 70
   128
 43
0.0
 10
80.826913183
 20
77.4970256002
 10
80.8068608991
 20
77.4631174353
 10
80.7214530994
 20
77.3071374833
 10
80.5765047951
 20
77.0423580793
 10
80.4154494656
 20
76.7496728534
 10
80.2455397899
 20
76.4423040382
 10
80.0681917264
 20
76.1212033987
 10
79.88323579
 20
75.7858431962
 10
79.6905373458
 20
75.4361910519
 10
79.4906633139
 20
75.0723833062
 10
78.6667220359
 20
73.5769289697
 10
77.7444208648
 20
71.9059178716
 10
76.7275160641
 20
70.0602533685
  0
LWPOLYLINE
  5
CE
330
1F
100
AcDbEntity
  8
0
  6
Continuous
 62
     7
370
    25
100
AcDbPolyline
 90
        7
 70
   128
 43
0.0
 10
73.827069006
 20
64.7977522269
 10
74.2649039363
 20
65.5964248224
 10
74.7503977463
 20
66.4741506177
 10
75.273152401
 20
67.4201428481
 10
75.8001463684
 20
68.376213761
 10
76.2866140233
 20
69.2579001941
 10
76.7277855099
 20
70.0602539712
  0
ARC
  5
CF
330
1F
100
AcDbEntity
  8
0
  6
Continuous
 62
     7
370
    25
100
AcDbCircle
 10
66.8270816754
 20
64.7977272727
 30
0.0
 40
7.000000000000011
100
AcDbArc
 50
0.0002035273
 51
90.0
  0
LWPOLYLINE
  5
D0
330
1F
100
AcDbEntity
  8
0
  6
Continuous
 62
     7
370
    25
100
AcDbPolyline
 90
       10
 70
   128
 43
0.0
 10
72.2982610064
 20
74.193863054
 10
71.9055995767
 20
74.0226169863
 10
71.4881319866
 20
73.8399992136
 10
71.046121141
 20
73.6462824693
 10
70.5799219438
 20
73.4418349256
 10
70.0896471261
 20
73.2267735278
 10
69.5753656846
 20
73.0011698523
 10
68.7987306377
 20
72.6619355503
 10
67.8850862343
 20
72.2633347247
 10
66.8270816846
 20
71.7977417773
  0
LWPOLYLINE
  5
D1
330
1F
100
AcDbEntity
  8
0
  6
Continuous
 62
     7
370
    25
100
AcDbPolyline
 90
       15
 70
   128
 43
0.0
 10
61.3559022993
 20
55.4015425002
 10
59.3070627231
 20
54.5041977483
 10
57.5015662356
 20
53.7138039247
 10
57.1296668796
 20
53.5509408552
 10
56.7700178804
 20
53.3934112897
 10
56.4226232984
 20
53.241232722
 10
56.087485675
 20
53.0944161023
 10
55.7646060525
 20
52.9529659214
 10
55.4539851522
 20
52.8168852872
 10
55.1556256359
 20
52.6861856683
 10
54.6021076564
 20
52.4437603029
 10
54.1012035252
 20
52.2243720693
 10
53.6891220327
 20
52.0441553483
 10
53.3757322558
 20
51.907937144
 10
53.1273643066
 20
51.79795723
  0
ARC
  5
D2
330
1F
100
AcDbEntity
  8
0
  6
Continuous
 62
     7
370
    25
100
AcDbCircle
 10
53.1260052468
 20
52.0966222112
 30
0.0
 40
0.2987204736297511
100
AcDbArc
 50
179.6534354542
 51
270.2606664646
  0
LWPOLYLINE
  5
D3
330
1F
100
AcDbEntity
  8
0
  6
Continuous
 62
     7
370
    25
100
AcDbPolyline
 90
       13
 70
   128
 43
0.0
 10
52.827250168
 20
52.09842893
 10
52.8473025547
 20
52.1323372916
 10
52.9327104568
 20
52.2883174369
 10
53.0776587419
 20
52.5530968033
 10
53.2387140145
 20
52.8457819269
 10
53.4086236406
 20
53.1531506525
 10
53.5859716517
 20
53.4742511962
 10
53.7709275187
 20
53.809611271
 10
53.963625875
 20
54.1592632553
 10
54.1634997995
 20
54.5230708083
 10
54.987441158
 20
56.0185253005
 10
55.9097424111
 20
57.689536543
 10
56.9266472867
 20
59.5352011769
  0
ARC
  5
D4
330
1F
100
AcDbEntity
  8
0
  6
Continuous
 62
     7
370
    25
100
AcDbCircle
 10
316.050495393
 20
-79.8639012718
 30
0.0
 40
294.2404083273889
100
AcDbArc
 50
150.5512837547
 51
151.7214073238
  0
ARC
  5
D5
330
1F
100
AcDbEntity
  8
0
  6
Continuous
 62
     7
370
    25
100
AcDbCircle
 10
66.8270816754
 20
64.7977272727
 30
0.0
 40
7.000000000000101
100
AcDbArc
 50
179.9999931565
 51
270.0000113184
  0
LWPOLYLINE
  5
D6
330
1F
100
AcDbEntity
  8
0
  6
Continuous
 62
     7
370
    25
100
AcDbPolyline
 90
       10
 70
   128
 43
0.0
 10
61.3559023444
 20
55.4015914914
 10
61.7506051913
 20
55.5736492068
 10
62.1694484902
 20
55.7568534756
 10
62.6121327586
 20
55.9508936193
 10
63.0782490109
 20
56.1553453621
 10
63.567650518
 20
56.3700564898
 10
64.0802306578
 20
56.5949163941
 10
64.8569425454
 20
56.934172986
 10
65.7701227694
 20
57.3325771621
 10
66.8270830498
 20
57.7977139905
  0
ARC
  5
D7
330
1F
100
AcDbEntity
  8
0
  6
Continuous
 62
     7
370
    25
100
AcDbCircle
 10
-147.4368904584
 20
-68.8670711184
 30
0.0
 40
258.3349479412412
100
AcDbArc
 50
27.9208092452
 51
29.8042247582
  0
ARC
  5
D8
330
1F
100
AcDbEntity
  8
0
  6
Continuous
 62
     7
370
    25
100
AcDbCircle
 10
80.5282102752
 20
52.0965744769
 30
0.0
 40
0.2986729370512807
100
AcDbArc
 50
269.7303470796
 51
0.3622436753
  0
LWPOLYLINE
  5
D9
330
1F
100
AcDbEntity
  8
0
  6
Continuous
 62
     7
370
    25
100
AcDbPolyline
 90
       22
 70
   128
 43
0.0
 10
80.5268045873
 20
51.7979572347
 10
80.4273070015
 20
51.8431750285
 10
80.2703823003
 20
51.9108989787
 10
80.0553481195
 20
52.0040691164
 10
79.8123680746
 20
52.1106164007
 10
79.5572909631
 20
52.2224371788
 10
79.2901904361
 20
52.3392141183
 10
78.8178358135
 20
52.5468062172
 10
78.2753129056
 20
52.7834472918
 10
77.7172189754
 20
53.0284429132
 10
77.2027347755
 20
53.2533531438
 10
76.7467834358
 20
53.4546240581
 10
76.1599765501
 20
53.7094103382
 10
75.5565504994
 20
53.9743673636
 10
75.0720373438
 20
54.1874979433
 10
74.7298171453
 20
54.3365634508
 10
74.3458111234
 20
54.5041263926
 10
73.9533113015
 20
54.6756303138
 10
73.5523102515
 20
54.851107219
 10
73.1427932378
 20
55.0306205976
 10
72.7247570316
 20
55.2141843617
 10
72.2982610514
 20
55.4015425002
  0
LWPOLYLINE
  5
DA
330
1F
100
AcDbEntity
  8
0
  6
Continuous
 62
     7
370
    25
100
AcDbPolyline
 90
       10
 70
   128
 43
0.0
 10
66.8270830666
 20
57.7977139906
 10
67.6055511288
 20
57.4543337076
 10
68.2369655073
 20
57.1790407426
 10
68.7465991065
 20
56.9572294735
 10
69.3073279704
 20
56.7119961649
 10
69.8577294586
 20
56.4706681339
 10
70.5753326953
 20
56.1559656426
 10
71.2631426951
 20
55.8559975873
 10
71.835791108
 20
55.6062626583
 10
72.2982610064
 20
55.4015914914
  0
ARC
  5
DB
330
1F
100
AcDbEntity
  8
0
  6
Continuous
 62
     7
370
    25
100
AcDbCircle
 10
66.8270816754
 20
64.7977272727
 30
0.0
 40
7.000000000000025
100
AcDbArc
 50
270.0000113184
 51
0.0002035273
  0
LWPOLYLINE
  5
DC
330
1F
100
AcDbEntity
  8
0
  6
Continuous
 62
     7
370
    25
100
AcDbPolyline
 90
       12
 70
   128
 43
0.0
 10
76.7277855099
 20
59.5352005743
 10
76.4413493952
 20
60.0598711036
 10
76.1924091531
 20
60.5086063955
 10
75.9921889869
 20
60.8697626308
 10
75.7338872994
 20
61.338643377
 10
75.4555907997
 20
61.8437518712
 10
75.1562635678
 20
62.3861627608
 10
74.8964504959
 20
62.8571863506
 10
74.6121299317
 20
63.3732303405
 10
74.3014757876
 20
63.9361890862
 10
74.011782036
 20
64.4597697813
 10
73.8270690034
 20
64.7977520495
  0
LWPOLYLINE
  5
DD
330
1F
100
AcDbEntity
  8
0
  6
Continuous
 62
     7
370
    25
100
AcDbPolyline
 90
        9
 70
   128
 43
0.0
 10
66.8270816747
 20
77.7975651233
 10
66.8273146468
 20
77.598590543
 10
66.8273017497
 20
77.3680691658
 10
66.8271262427
 20
77.1063597224
 10
66.8267654076
 20
76.8133643289
 10
66.8261847971
 20
76.4889345658
 10
66.8243559011
 20
75.7847671967
 10
66.823913307
 20
75.016427476
 10
66.8270816754
 20
74.1935005654
  0
LINE
  5
DE
330
1F
100
AcDbEntity
  8
0
  6
Continuous
 62
     7
370
    25
100
AcDbLine
 10
66.8270816749
 20
77.797564325
 30
0.0
 11
80.526799075
 21
77.7975497166
 31
0.0
  0
LWPOLYLINE
  5
DF
330
1F
100
AcDbEntity
  8
0
  6
Continuous
 62
     7
370
    25
100
AcDbPolyline
 90
        5
 70
   128
 43
0.0
 10
66.8270816753
 20
73.9828468565
 10
66.8266509567
 20
73.5145824321
 10
66.8261136213
 20
72.9926114918
 10
66.8264609337
 20
72.4212049941
 10
66.8270816824
 20
71.7977294755
  0
LWPOLYLINE
  5
E0
330
1F
100
AcDbEntity
  8
0
  6
Continuous
 62
     7
370
    25
100
AcDbPolyline
 90
        3
 70
   128
 43
0.0
 10
66.8270816754
 20
74.1935005654
 10
66.8265596211
 20
74.0760036698
 10
66.8270816753
 20
73.9828468565
  0
LWPOLYLINE
  5
E1
330
1F
100
AcDbEntity
  8
0
  6
Continuous
 62
     7
370
    25
100
AcDbPolyline
 90
        9
 70
   128
 43
0.0
 10
66.8270904734
 20
51.797889424
 10
66.8268476618
 20
51.9969082594
 10
66.826855629
 20
52.2274666517
 10
66.8270295918
 20
52.4891993035
 10
66.8273909339
 20
52.7821983492
 10
66.8279728063
 20
53.1066066225
 10
66.8298041306
 20
53.8107593931
 10
66.8302487059
 20
54.5790705143
 10
66.8270816754
 20
55.40195398
  0
LINE
  5
E2
330
1F
100
AcDbEntity
  8
0
  6
Continuous
 62
     7
370
    25
100
AcDbLine
 10
66.8270904733
 20
51.7978902209
 30
0.0
 11
53.1273642673
 21
51.797904829
 31
0.0
  0
LWPOLYLINE
  5
E3
330
1F
100
AcDbEntity
  8
0
  6
Continuous
 62
     7
370
    25
100
AcDbPolyline
 90
        5
 70
   128
 43
0.0
 10
66.8270816755
 20
55.6126076889
 10
66.8275099913
 20
56.0808650224
 10
66.8280464091
 20
56.602832305
 10
66.827700161
 20
57.1742407195
 10
66.8270830551
 20
57.797726299
  0
LWPOLYLINE
  5
E4
330
1F
100
AcDbEntity
  8
0
  6
Continuous
 62
     7
370
    25
100
AcDbPolyline
 90
        3
 70
   128
 43
0.0
 10
66.8270816754
 20
55.40195398
 10
66.8276037297
 20
55.5194508756
 10
66.8270816755
 20
55.6126076889
  0
LINE
  5
E5
330
1F
100
AcDbEntity
  8
0
  6
Continuous
 62
     7
370
    25
100
AcDbLine
 10
53.1273587322
 20
77.7975496981
 30
0.0
 11
66.8270816749
 21
77.797564325
 31
0.0
  0
LINE
  5
E6
330
1F
100
AcDbEntity
  8
0
  6
Continuous
 62
     7
370
    25
100
AcDbLine
 10
80.5268046266
 20
51.7979048476
 30
0.0
 11
66.8270904733
 21
51.7978902209
 31
0.0
  0
LINE
  5
E7
330
1F
100
AcDbEntity
  8
0
  6
Continuous
 62
     7
370
    25
100
AcDbLine
 10
52.8272902377
 20
52.0984290685
 30
0.0
 11
52.8272294901
 21
64.79771941
 31
0.0
  0
LWPOLYLINE
  5
E8
330
1F
100
AcDbEntity
  8
0
  6
Continuous
 62
     7
370
    25
100
AcDbPolyline
 90
        8
 70
   128
 43
0.0
 10
56.9265093784
 20
64.7977272725
 10
56.0808188794
 20
64.8003219388
 10
55.2719250179
 20
64.7997631009
 10
54.5084662152
 20
64.7981282425
 10
54.0131340745
 20
64.7975552009
 10
53.59367157
 20
64.7965227657
 10
53.1953354768
 20
64.7958458781
 10
52.8272523544
 20
64.7977194157
  0
LWPOLYLINE
  5
E9
330
1F
100
AcDbEntity
  8
0
  6
Continuous
 62
     7
370
    25
100
AcDbPolyline
 90
        5
 70
   128
 43
0.0
 10
59.3734237624
 20
64.7977272726
 10
58.6522802032
 20
64.7983004715
 10
58.0067405182
 20
64.7991313863
 10
57.4306319585
 20
64.7987355114
 10
56.9265093784
 20
64.7977272725
  0
LWPOLYLINE
  5
EA
330
1F
100
AcDbEntity
  8
0
  6
Continuous
 62
     7
370
    25
100
AcDbPolyline
 90
        3
 70
   128
 43
0.0
 10
59.3734237624
 20
64.7977272726
 10
59.537977252
 20
64.7970290134
 10
59.7083376296
 20
64.7977272727
  0
LWPOLYLINE
  5
EB
330
1F
100
AcDbEntity
  8
0
  6
Continuous
 62
     7
370
    25
100
AcDbPolyline
 90
        3
 70
   128
 43
0.0
 10
59.7083376296
 20
64.7977272727
 10
59.7676045273
 20
64.7977559767
 10
59.8271096353
 20
64.7977273927
  0
LINE
  5
EC
330
1F
100
AcDbEntity
  8
0
  6
Continuous
 62
     7
370
    25
100
AcDbLine
 10
80.8268731142
 20
77.4970254617
 30
0.0
 11
80.826933861
 21
64.7977262036
 31
0.0
  0
LWPOLYLINE
  5
ED
330
1F
100
AcDbEntity
  8
0
  6
Continuous
 62
     7
370
    25
100
AcDbPolyline
 90
        8
 70
   128
 43
0.0
 10
76.7276539056
 20
64.7977272725
 10
77.5751252608
 20
64.795089967
 10
78.3859743904
 20
64.7956608692
 10
79.1513987067
 20
64.7973230147
 10
79.646785442
 20
64.7978968134
 10
80.0643737837
 20
64.7989075661
 10
80.4607394415
 20
64.7995698832
 10
80.8269109987
 20
64.7977261979
  0
LWPOLYLINE
  5
EE
330
1F
100
AcDbEntity
  8
0
  6
Continuous
 62
     7
370
    25
100
AcDbPolyline
 90
        5
 70
   128
 43
0.0
 10
74.2807395883
 20
64.7977272728
 10
75.0018831354
 20
64.7971540738
 10
75.6474228032
 20
64.7963231584
 10
76.2235313435
 20
64.7967190329
 10
76.7276539056
 20
64.7977272725
  0
LWPOLYLINE
  5
EF
330
1F
100
AcDbEntity
  8
0
  6
Continuous
 62
     7
370
    25
100
AcDbPolyline
 90
        3
 70
   128
 43
0.0
 10
74.2807395883
 20
64.7977272728
 10
74.116186081
 20
64.7984255322
 10
73.9458256844
 20
64.7977272728
  0
LWPOLYLINE
  5
F0
330
1F
100
AcDbEntity
  8
0
  6
Continuous
 62
     7
370
    25
100
AcDbPolyline
 90
        3
 70
   128
 43
0.0
 10
73.9458256844
 20
64.7977272728
 10
73.8865581263
 20
64.797711952
 10
73.8270524805
 20
64.7977538898
  0
LINE
  5
F1
330
1F
100
AcDbEntity
  8
0
  6
Continuous
 62
     7
370
    25
100
AcDbLine
 10
52.8272294901
 20
64.79771941
 30
0.0
 11
52.8272861067
 21
77.4969917535
 31
0.0
  0
LINE
  5
F2
330
1F
100
AcDbEntity
  8
0
  6
Continuous
 62
     7
370
    25
100
AcDbLine
 10
80.826933861
 20
64.7977262036
 30
0.0
 11
80.826877243
 21
52.0984627776
 31
0.0
  0
LINE
  5
F3
330
1F
100
AcDbEntity
  8
0
  6
Continuous
 62
     7
370
    25
100
AcDbLine
 10
51.9214156781
 20
49.8920612754
 30
0.0
 11
81.7327476727
 21
49.8920612754
 31
0.0
  0
LINE
  5
F4
330
1F
100
AcDbEntity
  8
0
  6
Continuous
 62
     7
370
    25
100
AcDbLine
 10
51.9214156781
 20
79.70339327
 30
0.0
 11
51.9214156781
 21
49.8920612754
 31
0.0
  0
LINE
  5
F5
330
1F
100
AcDbEntity
  8
0
  6
Continuous
 62
     7
370
    25
100
AcDbLine
 10
51.9214156781
 20
79.70339327
 30
0.0
 11
81.7327476727
 21
79.70339327
 31
0.0
  0
LINE
  5
F6
330
1F
100
AcDbEntity
  8
0
  6
Continuous
 62
     7
370
    25
100
AcDbLine
 10
81.7327476727
 20
79.70339327
 30
0.0
 11
81.7327476727
 21
49.8920612754
 31
0.0
  0
LINE
  5
F7
330
1F
100
AcDbEntity
  8
0
  6
Continuous
 62
     7
370
    25
100
AcDbLine
 10
51.827096488
 20
79.79772693
 30
0.0
 11
51.9214156781
 21
79.70339327
 31
0.0
  0
LINE
  5
F8
330
1F
100
AcDbEntity
  8
0
  6
Continuous
 62
     7
370
    25
100
AcDbLine
 10
51.827096488
 20
79.7977269228
 30
0.0
 11
81.8270552935
 21
79.797727275
 31
0.0
  0
LINE
  5
F9
330
1F
100
AcDbEntity
  8
0
  6
Continuous
 62
     7
370
    25
100
AcDbLine
 10
81.7327476727
 20
79.70339327
 30
0.0
 11
81.8270552935
 21
79.7977272682
 31
0.0
  0
LINE
  5
FA
330
1F
100
AcDbEntity
  8
0
  6
Continuous
 62
     7
370
    25
100
AcDbLine
 10
51.9214156781
 20
49.8920612754
 30
0.0
 11
51.8271089926
 21
49.7977271922
 31
0.0
  0
LINE
  5
FB
330
1F
100
AcDbEntity
  8
0
  6
Continuous
 62
     7
370
    25
100
AcDbLine
 10
51.8271089926
 20
49.7977271851
 30
0.0
 11
51.8271611756
 21
51.197996918
 31
0.0
  0
LINE
  5
FC
330
1F
100
AcDbEntity
  8
0
  6
Continuous
 62
     7
370
    25
100
AcDbLine
 10
51.8271438438
 20
78.3975621238
 30
0.0
 11
51.827096488
 21
79.7977269228
 31
0.0
  0
LINE
  5
FD
330
1F
100
AcDbEntity
  8
0
  6
Continuous
 62
     7
370
    25
100
AcDbLine
 10
51.8270834116
 20
78.3975621238
 30
0.0
 11
51.8270820709
 21
51.197996918
 31
0.0
  0
LINE
  5
FE
330
1F
100
AcDbEntity
  8
0
  6
Continuous
 62
     7
370
    25
100
AcDbLine
 10
81.7327476727
 20
49.8920612754
 30
0.0
 11
81.8270812928
 21
49.7977276553
 31
0.0
  0
LINE
  5
FF
330
1F
100
AcDbEntity
  8
0
  6
Continuous
 62
     7
370
    25
100
AcDbLine
 10
81.8270668493
 20
49.7977276227
 30
0.0
 11
51.8271089926
 21
49.7977271851
 31
0.0
  0
LINE
  5
100
330
1F
100
AcDbEntity
  8
0
  6
Continuous
 62
     7
370
    25
100
AcDbLine
 10
81.8270552935
 20
79.7977272749
 30
0.0
 11
81.8270042027
 21
78.3972570271
 31
0.0
  0
LINE
  5
101
330
1F
100
AcDbEntity
  8
0
  6
Continuous
 62
     7
370
    25
100
AcDbLine
 10
81.8270799054
 20
51.1978581412
 30
0.0
 11
81.8270807232
 21
78.3972570271
 31
0.0
  0
LINE
  5
102
330
1F
100
AcDbEntity
  8
0
  6
Continuous
 62
     7
370
    25
100
AcDbLine
 10
81.8270194207
 20
51.1978581412
 30
0.0
 11
81.8270668493
 21
49.7977276227
 31
0.0
  0
LINE
  5
103
330
1F
100
AcDbEntity
  8
0
  6
Continuous
 62
     7
370
    25
100
AcDbLine
 10
82.5773862619
 20
80.7977272727
 30
0.0
 11
81.5773862612
 21
79.797727272
 31
0.0
  0
LINE
  5
104
330
1F
100
AcDbEntity
  8
0
  6
Continuous
 62
     7
370
    25
100
AcDbLine
 10
52.0726140852
 20
79.7977269257
 30
0.0
 11
51.0726137381
 21
80.7977272727
 31
0.0
  0
LINE
  5
105
330
1F
100
AcDbEntity
  8
0
  6
Continuous
 62
     7
370
    25
100
AcDbLine
 10
81.5773859155
 20
49.7977276191
 30
0.0
 11
82.5773862619
 21
48.7977272727
 31
0.0
  0
LINE
  5
106
330
1F
100
AcDbEntity
  8
0
  6
Continuous
 62
     7
370
    25
100
AcDbLine
 10
51.0726137381
 20
48.7977272727
 30
0.0
 11
52.0726136541
 21
49.7977271887
 31
0.0
  0
LINE
  5
107
330
1F
100
AcDbEntity
  8
0
  6
Continuous
 62
     7
370
    25
100
AcDbLine
 10
81.8336228892
 20
50.4884857692
 30
0.0
 11
81.8361756412
 21
50.5383287205
 31
0.0
  0
LINE
  5
108
330
1F
100
AcDbEntity
  8
0
  6
Continuous
 62
     7
370
    25
100
AcDbLine
 10
51.8191892425
 20
79.1295524771
 30
0.0
 11
51.8138243588
 21
79.057125825
 31
0.0
  0
LINE
  5
109
330
1F
100
AcDbEntity
  8
0
  6
Continuous
 62
     7
370
    25
100
AcDbLine
 10
51.8138243588
 20
50.5383287205
 30
0.0
 11
51.818381604
 21
50.4715963261
 31
0.0
  0
INSERT
  5
115
330
1F
100
AcDbEntity
  8
0
  6
Continuous
 62
     7
370
    18
100
AcDbBlockReference
  2
SW_CENTERMARKSYMBOL_0
 10
66.8270816754
 20
64.7977272727
 30
0.0
  0
LINE
  5
116
330
1F
100
AcDbEntity
  8
0
  6
Continuous
 62
     7
370
    25
100
AcDbLine
 10
49.2002669836
 20
185.2887145476
 30
0.0
 11
49.1362746332
 21
185.2714299598
 31
0.0
  0
ARC
  5
117
330
1F
100
AcDbEntity
  8
0
  6
Continuous
 62
     7
370
    25
100
AcDbCircle
 10
49.2536216264
 20
184.791679203
 30
0.0
 40
0.4992184212987413
100
AcDbArc
 50
100.6937192774
 51
179.0099834384
  0
ARC
  5
118
330
1F
100
AcDbEntity
  8
0
  6
Continuous
 62
     7
370
    25
100
AcDbCircle
 10
84.3963783842
 20
184.7916792021
 30
0.0
 40
0.4992184223304823
100
AcDbArc
 50
0.9900166018
 51
79.306280665
  0
LWPOLYLINE
  5
119
330
1F
100
AcDbEntity
  8
0
  6
Continuous
 62
     7
370
    25
100
AcDbPolyline
 90
        7
 70
   128
 43
0.0
 10
84.4246493879
 20
185.2885748836
 10
84.3188901709
 20
185.2886479589
 10
84.1733796567
 20
185.2886949603
 10
83.8903550365
 20
185.2887395975
 10
83.5348948016
 20
185.2887351885
 10
83.2550856168
 20
185.2887307457
 10
82.9052139689
 20
185.2887214516
  0
LINE
  5
11A
330
1F
100
AcDbEntity
  8
0
  6
Continuous
 62
     7
370
    25
100
AcDbLine
 10
84.5137254209
 20
185.2714299588
 30
0.0
 11
84.4497330146
 21
185.2887145476
 31
0.0
  0
ARC
  5
11B
330
1F
100
AcDbEntity
  8
0
  6
Continuous
 62
     7
370
    25
100
AcDbCircle
 10
49.2746543124
 20
184.7763950167
 30
0.0
 40
0.5311933729090953
100
AcDbArc
 50
135.8246187096
 51
172.3192722762
  0
ARC
  5
11C
330
1F
100
AcDbEntity
  8
0
  6
Continuous
 62
     7
370
    25
100
AcDbCircle
 10
84.3753456566
 20
184.7763950016
 30
0.0
 40
0.5311934054881534
100
AcDbArc
 50
7.6807282607
 51
44.175380605
  0
ARC
  5
11D
330
1F
100
AcDbEntity
  8
0
  6
Continuous
 62
     7
370
    25
100
AcDbCircle
 10
52.7481045116
 20
197.0127824293
 30
0.0
 40
4.08218245936937
100
AcDbArc
 50
286.8145548483
 51
146.0796115516
  0
ARC
  5
11E
330
1F
100
AcDbEntity
  8
0
  6
Continuous
 62
     7
370
    25
100
AcDbCircle
 10
52.7476699427
 20
197.0151024881
 30
0.0
 40
3.101608144302209
100
AcDbArc
 50
292.2066157927
 51
132.8010801277
  0
LINE
  5
11F
330
1F
100
AcDbEntity
  8
0
  6
Continuous
 62
     7
370
    25
100
AcDbLine
 10
39.3739808201
 20
143.654221488
 30
0.0
 11
49.0768218116
 21
194.4177334445
 31
0.0
  0
LINE
  5
120
330
1F
100
AcDbEntity
  8
0
  6
Continuous
 62
     7
370
    25
100
AcDbLine
 10
48.7207081844
 20
197.7746118154
 30
0.0
 11
38.4114063311
 21
143.8382061425
 31
0.0
  0
LINE
  5
121
330
1F
100
AcDbEntity
  8
0
  6
Continuous
 62
     7
370
    25
100
AcDbLine
 10
49.0528128105
 20
191.6665744161
 30
0.0
 11
45.4920810761
 21
175.6630172384
 31
0.0
  0
LINE
  5
122
330
1F
100
AcDbEntity
  8
0
  6
Continuous
 62
     7
370
    25
100
AcDbLine
 10
39.3709974614
 20
143.6397929861
 30
0.0
 11
49.0118272285
 21
186.9700919044
 31
0.0
  0
LINE
  5
123
330
1F
100
AcDbEntity
  8
0
  6
Continuous
 62
     7
370
    25
100
AcDbLine
 10
55.5510946241
 20
194.0530790281
 30
0.0
 11
55.4974202529
 21
193.5265741031
 31
0.0
  0
LINE
  5
124
330
1F
100
AcDbEntity
  8
0
  6
Continuous
 62
     7
370
    25
100
AcDbLine
 10
56.4599947359
 20
193.3425894167
 30
0.0
 11
56.7552584602
 21
196.238902902
 31
0.0
  0
ARC
  5
125
330
1F
100
AcDbEntity
  8
0
  6
Continuous
 62
     7
370
    25
100
AcDbCircle
 10
56.4761294156
 20
193.3838723656
 30
0.0
 40
0.989057840097875
100
AcDbArc
 50
171.7043845318
 51
231.7043845318
  0
ARC
  5
126
330
1F
100
AcDbEntity
  8
0
  6
Continuous
 62
     7
370
    25
100
AcDbCircle
 10
56.4761294156
 20
193.3838723656
 30
0.0
 40
0.0443239186367192
100
AcDbArc
 50
248.6528726519
 51
308.6528726518
  0
LINE
  5
127
330
1F
100
AcDbEntity
  8
0
  6
Continuous
 62
     7
370
    25
100
AcDbLine
 10
55.8631915044
 20
192.6076362365
 30
0.0
 11
59.6022865307
 21
189.9088429138
 31
0.0
  0
LINE
  5
128
330
1F
100
AcDbEntity
  8
0
  6
Continuous
 62
     7
370
    25
100
AcDbLine
 10
60.2429091845
 20
190.6504645258
 30
0.0
 11
56.5038141583
 21
193.3492578485
 31
0.0
  0
LINE
  5
129
330
1F
100
AcDbEntity
  8
0
  6
Continuous
 62
     7
370
    25
100
AcDbLine
 10
84.6381727715
 20
186.9700919044
 30
0.0
 11
94.2790025386
 21
143.6397929861
 31
0.0
  0
LINE
  5
12A
330
1F
100
AcDbEntity
  8
0
  6
Continuous
 62
     7
370
    25
100
AcDbLine
 10
95.2356103101
 20
143.8526346444
 30
0.0
 11
84.5971871895
 21
191.6665744161
 31
0.0
  0
ARC
  5
12B
330
1F
100
AcDbEntity
  8
0
  6
Continuous
 62
     7
370
    25
100
AcDbCircle
 10
80.8311209101
 20
196.936909337
 30
0.0
 40
3.009799120800817
100
AcDbArc
 50
186.950006493
 51
248.5407213077
  0
ARC
  5
12C
330
1F
100
AcDbEntity
  8
0
  6
Continuous
 62
     7
370
    25
100
AcDbCircle
 10
80.900164481
 20
197.0159281157
 30
0.0
 40
3.100100612406466
100
AcDbArc
 50
47.2065496225
 51
191.0284962425
  0
ARC
  5
12D
330
1F
100
AcDbEntity
  8
0
  6
Continuous
 62
     7
370
    25
100
AcDbCircle
 10
81.1772990046
 20
197.0131247341
 30
0.0
 40
3.841854706255074
100
AcDbArc
 50
331.9005632479
 51
28.670851796
  0
ARC
  5
12E
330
1F
100
AcDbEntity
  8
0
  6
Continuous
 62
     7
370
    25
100
AcDbCircle
 10
80.898625127
 20
197.0168804452
 30
0.0
 40
4.078766092543995
100
AcDbArc
 50
33.8832973993
 51
190.9958827232
  0
LINE
  5
12F
330
1F
100
AcDbEntity
  8
0
  6
Continuous
 62
     7
370
    25
100
AcDbLine
 10
84.9292918156
 20
197.7746118154
 30
0.0
 11
84.8735923175
 21
197.9644795095
 31
0.0
  0
ARC
  5
130
330
1F
100
AcDbEntity
  8
0
  6
Continuous
 62
     7
370
    25
100
AcDbCircle
 10
80.6957828117
 20
196.6388015667
 30
0.0
 40
3.665153213795943
100
AcDbArc
 50
224.8861781663
 51
254.5764515689
  0
LINE
  5
131
330
1F
100
AcDbEntity
  8
0
  6
Continuous
 62
     7
370
    25
100
AcDbLine
 10
76.8947415398
 20
196.238902902
 30
0.0
 11
77.1900052641
 21
193.3425894167
 31
0.0
  0
LINE
  5
132
330
1F
100
AcDbEntity
  8
0
  6
Continuous
 62
     7
370
    25
100
AcDbLine
 10
78.1525797471
 20
193.5265741031
 30
0.0
 11
77.8573160227
 21
196.4228875884
 31
0.0
  0
ARC
  5
133
330
1F
100
AcDbEntity
  8
0
  6
Continuous
 62
     7
370
    25
100
AcDbCircle
 10
77.1738705844
 20
193.3838723656
 30
0.0
 40
0.0443239186368138
100
AcDbArc
 50
231.3471273483
 51
291.347127348
  0
ARC
  5
134
330
1F
100
AcDbEntity
  8
0
  6
Continuous
 62
     7
370
    25
100
AcDbCircle
 10
77.1738705844
 20
193.3838723656
 30
0.0
 40
0.9890578400977947
100
AcDbArc
 50
308.2956154682
 51
8.2956154682
  0
LINE
  5
135
330
1F
100
AcDbEntity
  8
0
  6
Continuous
 62
     7
370
    25
100
AcDbLine
 10
77.1461858417
 20
193.3492578485
 30
0.0
 11
73.4070908155
 21
190.6504645258
 31
0.0
  0
LINE
  5
136
330
1F
100
AcDbEntity
  8
0
  6
Continuous
 62
     7
370
    25
100
AcDbLine
 10
74.0477134693
 20
189.9088429138
 30
0.0
 11
77.7868084956
 21
192.6076362365
 31
0.0
  0
LINE
  5
137
330
1F
100
AcDbEntity
  8
0
  6
Continuous
 62
     7
370
    25
100
AcDbLine
 10
95.2385936689
 20
143.8382061425
 30
0.0
 11
84.9292918156
 21
197.7746118154
 31
0.0
  0
LINE
  5
138
330
1F
100
AcDbEntity
  8
0
  6
Continuous
 62
     7
370
    25
100
AcDbLine
 10
84.5731781884
 20
194.4177334445
 30
0.0
 11
88.1579189239
 21
175.6630172384
 31
0.0
  0
ARC
  5
139
330
1F
100
AcDbEntity
  8
0
  6
Continuous
 62
     7
370
    25
100
AcDbCircle
 10
79.1571720785
 20
185.7908052837
 30
0.0
 40
0.4999999999993463
100
AcDbArc
 50
269.9999999999
 51
359.5
  0
LINE
  5
13A
330
1F
100
AcDbEntity
  8
0
  6
Continuous
 62
     7
370
    25
100
AcDbLine
 10
84.6528276838
 20
185.2908052837
 30
0.0
 11
84.5481052703
 21
197.2908052837
 31
0.0
  0
LINE
  5
13B
330
1F
100
AcDbEntity
  8
0
  6
Continuous
 62
     7
370
    25
100
AcDbLine
 10
79.7575500973
 20
197.2908052837
 30
0.0
 11
79.6571530401
 21
185.7864420159
 31
0.0
  0
LINE
  5
13C
330
1F
100
AcDbEntity
  8
0
  6
Continuous
 62
     7
370
    25
100
AcDbLine
 10
84.5481052703
 20
197.2908052837
 30
0.0
 11
84.5481052703
 21
199.2908052837
 31
0.0
  0
LINE
  5
13D
330
1F
100
AcDbEntity
  8
0
  6
Continuous
 62
     7
370
    25
100
AcDbLine
 10
79.7575500973
 20
199.2908052837
 30
0.0
 11
79.7575500973
 21
197.2908052837
 31
0.0
  0
ARC
  5
13E
330
1F
100
AcDbEntity
  8
0
  6
Continuous
 62
     7
370
    25
100
AcDbCircle
 10
54.4928279215
 20
185.7908052837
 30
0.0
 40
0.4999999999993201
100
AcDbArc
 50
180.5
 51
270.0000000001
  0
LINE
  5
13F
330
1F
100
AcDbEntity
  8
0
  6
Continuous
 62
     7
370
    25
100
AcDbLine
 10
53.9928469599
 20
185.7864420159
 30
0.0
 11
53.8924499027
 21
197.2908052837
 31
0.0
  0
LINE
  5
140
330
1F
100
AcDbEntity
  8
0
  6
Continuous
 62
     7
370
    25
100
AcDbLine
 10
49.1018947297
 20
197.2908052837
 30
0.0
 11
48.9971723162
 21
185.2908052837
 31
0.0
  0
LINE
  5
141
330
1F
100
AcDbEntity
  8
0
  6
Continuous
 62
     7
370
    25
100
AcDbLine
 10
53.8924499027
 20
197.2908052837
 30
0.0
 11
53.8924499027
 21
199.2908052837
 31
0.0
  0
LINE
  5
142
330
1F
100
AcDbEntity
  8
0
  6
Continuous
 62
     7
370
    25
100
AcDbLine
 10
49.1018947297
 20
199.2908052837
 30
0.0
 11
49.1018947297
 21
197.2908052837
 31
0.0
  0
LINE
  5
143
330
1F
100
AcDbEntity
  8
0
  6
Continuous
 62
     7
370
    25
100
AcDbLine
 10
44.1860102037
 20
146.7472274123
 30
0.0
 11
44.033466906
 21
148.4908052837
 31
0.0
  0
LINE
  5
144
330
1F
100
AcDbEntity
  8
0
  6
Continuous
 62
     7
370
    25
100
AcDbLine
 10
89.616533094
 20
148.4908052837
 30
0.0
 11
44.033466906
 21
148.4908052837
 31
0.0
  0
LINE
  5
145
330
1F
100
AcDbEntity
  8
0
  6
Continuous
 62
     7
370
    25
100
AcDbLine
 10
89.616533094
 20
148.4908052837
 30
0.0
 11
89.4639897963
 21
146.7472274123
 31
0.0
  0
LINE
  5
146
330
1F
100
AcDbEntity
  8
0
  6
Continuous
 62
     7
370
    25
100
AcDbLine
 10
89.4639897963
 20
146.7472274123
 30
0.0
 11
44.1860102037
 21
146.7472274123
 31
0.0
  0
LINE
  5
147
330
1F
100
AcDbEntity
  8
0
  6
Continuous
 62
     7
370
    25
100
AcDbLine
 10
50.0726137149
 20
146.2908052837
 30
0.0
 11
49.2642323283
 21
146.2908052837
 31
0.0
  0
LINE
  5
148
330
1F
100
AcDbEntity
  8
0
  6
Continuous
 62
     7
370
    25
100
AcDbLine
 10
44.6841075528
 20
146.2908052837
 30
0.0
 11
49.2593865405
 21
146.2908052837
 31
0.0
  0
ARC
  5
149
330
1F
100
AcDbEntity
  8
0
  6
Continuous
 62
     7
370
    25
100
AcDbCircle
 10
44.6841075528
 20
146.7908052837
 30
0.0
 40
0.5000000000000284
100
AcDbArc
 50
185.0
 51
270.0
  0
ARC
  5
14A
330
1F
100
AcDbEntity
  8
0
  6
Continuous
 62
     7
370
    25
100
AcDbCircle
 10
88.9658924472
 20
146.7908052837
 30
0.0
 40
0.5000000000000284
100
AcDbArc
 50
270.0
 51
355.0
  0
LINE
  5
14B
330
1F
100
AcDbEntity
  8
0
  6
Continuous
 62
     7
370
    25
100
AcDbLine
 10
88.9658924472
 20
146.2908052837
 30
0.0
 11
84.3906134636
 21
146.2908052837
 31
0.0
  0
LINE
  5
14C
330
1F
100
AcDbEntity
  8
0
  6
Continuous
 62
     7
370
    25
100
AcDbLine
 10
84.3857676757
 20
146.2908052837
 30
0.0
 11
83.5773862851
 21
146.2908052837
 31
0.0
  0
LINE
  5
14D
330
1F
100
AcDbEntity
  8
0
  6
Continuous
 62
     7
370
    25
100
AcDbLine
 10
83.5773862851
 20
146.2908052837
 30
0.0
 11
50.0726137149
 21
146.2908052837
 31
0.0
  0
LINE
  5
14E
330
1F
100
AcDbEntity
  8
0
  6
Continuous
 62
     7
370
    25
100
AcDbLine
 10
50.0726137149
 20
148.9818742122
 30
0.0
 11
50.0726137149
 21
148.4908052837
 31
0.0
  0
LINE
  5
14F
330
1F
100
AcDbEntity
  8
0
  6
Continuous
 62
     7
370
    25
100
AcDbLine
 10
83.553696758
 20
148.9820790804
 30
0.0
 11
50.1078424081
 21
148.9820790804
 31
0.0
  0
LINE
  5
150
330
1F
100
AcDbEntity
  8
0
  6
Continuous
 62
     7
370
    25
100
AcDbLine
 10
83.5773862851
 20
148.9818724245
 30
0.0
 11
83.5773862851
 21
148.4908052837
 31
0.0
  0
ARC
  5
151
330
1F
100
AcDbEntity
  8
0
  6
Continuous
 62
     7
370
    25
100
AcDbCircle
 10
47.6199708359
 20
148.9908052837
 30
0.0
 40
0.5000000000000098
100
AcDbArc
 50
270.0
 51
358.976315284
  0
ARC
  5
152
330
1F
100
AcDbEntity
  8
0
  6
Continuous
 62
     7
370
    25
100
AcDbCircle
 10
49.0965362771
 20
119.6620861018
 30
0.0
 40
29.33622612493258
100
AcDbArc
 50
88.0932726943
 51
91.9067273057
  0
ARC
  5
153
330
1F
100
AcDbEntity
  8
0
  6
Continuous
 62
     7
370
    25
100
AcDbCircle
 10
84.5534637229
 20
119.6620861018
 30
0.0
 40
29.33622612494882
100
AcDbArc
 50
88.0932726943
 51
91.9067273057
  0
ARC
  5
154
330
1F
100
AcDbEntity
  8
0
  6
Continuous
 62
     7
370
    25
100
AcDbCircle
 10
86.0300291641
 20
148.9908052837
 30
0.0
 40
0.5
100
AcDbArc
 50
181.023479834
 51
270.0
  0
LINE
  5
155
330
1F
100
AcDbEntity
  8
0
  6
Continuous
 62
     7
370
    25
100
AcDbLine
 10
48.7450906408
 20
184.7995314869
 30
0.0
 11
48.1198875315
 21
148.9816693424
 31
0.0
  0
LINE
  5
156
330
1F
100
AcDbEntity
  8
0
  6
Continuous
 62
     7
370
    25
100
AcDbLine
 10
48.7450906408
 20
184.7995314869
 30
0.0
 11
48.7634027709
 21
184.8003127554
 31
0.0
  0
LINE
  5
157
330
1F
100
AcDbEntity
  8
0
  6
Continuous
 62
     7
370
    25
100
AcDbLine
 10
50.1195829218
 20
148.9816693424
 30
0.0
 11
50.7447860311
 21
184.7995314869
 31
0.0
  0
LINE
  5
158
330
1F
100
AcDbEntity
  8
0
  6
Continuous
 62
     7
370
    25
100
AcDbLine
 10
82.9052139689
 20
184.7995314869
 30
0.0
 11
83.5304170782
 21
148.9816693424
 31
0.0
  0
LINE
  5
159
330
1F
100
AcDbEntity
  8
0
  6
Continuous
 62
     7
370
    25
100
AcDbLine
 10
50.7447860311
 20
184.7995314869
 30
0.0
 11
82.9052139689
 21
184.7995314869
 31
0.0
  0
LINE
  5
15A
330
1F
100
AcDbEntity
  8
0
  6
Continuous
 62
     7
370
    25
100
AcDbLine
 10
84.8865972431
 20
184.8003127548
 30
0.0
 11
84.9049093592
 21
184.7995314869
 31
0.0
  0
LINE
  5
15B
330
1F
100
AcDbEntity
  8
0
  6
Continuous
 62
     7
370
    25
100
AcDbLine
 10
85.5301124685
 20
148.9816693424
 30
0.0
 11
84.9049093592
 21
184.7995314869
 31
0.0
  0
LINE
  5
15C
330
1F
100
AcDbEntity
  8
0
  6
Continuous
 62
     7
370
    25
100
AcDbLine
 10
82.9052139689
 20
184.7995314869
 30
0.0
 11
82.9052139689
 21
185.2908052837
 31
0.0
  0
LINE
  5
15D
330
1F
100
AcDbEntity
  8
0
  6
Continuous
 62
     7
370
    25
100
AcDbLine
 10
50.7447860311
 20
185.2908052837
 30
0.0
 11
50.7447860311
 21
184.7995314869
 31
0.0
  0
LINE
  5
15E
330
1F
100
AcDbEntity
  8
0
  6
Continuous
 62
     7
370
    25
100
AcDbLine
 10
82.9052139689
 20
185.2908052837
 30
0.0
 11
50.7447860311
 21
185.2908052837
 31
0.0
  0
LINE
  5
15F
330
1F
100
AcDbEntity
  8
0
  6
Continuous
 62
     7
370
    25
100
AcDbLine
 10
50.7447860311
 20
185.2908052837
 30
0.0
 11
49.2450144884
 21
185.2908052837
 31
0.0
  0
LINE
  5
160
330
1F
100
AcDbEntity
  8
0
  6
Continuous
 62
     7
370
    25
100
AcDbLine
 10
84.4049855116
 20
185.2908052837
 30
0.0
 11
82.9052139689
 21
185.2908052837
 31
0.0
  0
LINE
  5
161
330
1F
100
AcDbEntity
  8
0
  6
Continuous
 62
     7
370
    25
100
AcDbLine
 10
49.1018947297
 20
197.7017525321
 30
0.0
 11
48.7207081844
 21
197.7746118154
 31
0.0
  0
ARC
  5
162
330
1F
100
AcDbEntity
  8
0
  6
Continuous
 62
     7
370
    25
100
AcDbCircle
 10
38.8926935756
 20
143.7462138153
 30
0.0
 40
0.4900000000000083
100
AcDbArc
 50
259.1791099979
 51
349.1791099979
  0
ARC
  5
163
330
1F
100
AcDbEntity
  8
0
  6
Continuous
 62
     7
370
    25
100
AcDbCircle
 10
38.8926935756
 20
143.7462138153
 30
0.0
 40
0.4899999999999943
100
AcDbArc
 50
169.1791099979
 51
259.1791099979
  0
LINE
  5
164
330
1F
100
AcDbEntity
  8
0
  6
Continuous
 62
     7
370
    25
100
AcDbLine
 10
56.4599947359
 20
193.3425894167
 30
0.0
 11
55.4974202529
 21
193.5265741031
 31
0.0
  0
LINE
  5
165
330
1F
100
AcDbEntity
  8
0
  6
Continuous
 62
     7
370
    25
100
AcDbLine
 10
56.5038141583
 20
193.3492578485
 30
0.0
 11
55.8631915044
 21
192.6076362365
 31
0.0
  0
LINE
  5
166
330
1F
100
AcDbEntity
  8
0
  6
Continuous
 62
     7
370
    25
100
AcDbLine
 10
60.2429091845
 20
190.6504645258
 30
0.0
 11
59.6022865307
 21
189.9088429138
 31
0.0
  0
ARC
  5
167
330
1F
100
AcDbEntity
  8
0
  6
Continuous
 62
     7
370
    25
100
AcDbCircle
 10
94.7573064244
 20
143.7462138153
 30
0.0
 40
0.4899999999999998
100
AcDbArc
 50
192.5437695628
 51
282.5437695628
  0
ARC
  5
168
330
1F
100
AcDbEntity
  8
0
  6
Continuous
 62
     7
370
    25
100
AcDbCircle
 10
94.7573064244
 20
143.7462138153
 30
0.0
 40
0.4900000000000075
100
AcDbArc
 50
282.5437695628
 51
12.5437695628
  0
LINE
  5
169
330
1F
100
AcDbEntity
  8
0
  6
Continuous
 62
     7
370
    25
100
AcDbLine
 10
76.8947415586
 20
196.2389029055
 30
0.0
 11
77.8573160227
 21
196.4228875884
 31
0.0
  0
LINE
  5
16A
330
1F
100
AcDbEntity
  8
0
  6
Continuous
 62
     7
370
    25
100
AcDbLine
 10
78.1525796642
 20
193.5265740873
 30
0.0
 11
77.1900052641
 21
193.3425894167
 31
0.0
  0
LINE
  5
16B
330
1F
100
AcDbEntity
  8
0
  6
Continuous
 62
     7
370
    25
100
AcDbLine
 10
77.7868084586
 20
192.6076362793
 30
0.0
 11
77.1461858417
 21
193.3492578485
 31
0.0
  0
LINE
  5
16C
330
1F
100
AcDbEntity
  8
0
  6
Continuous
 62
     7
370
    25
100
AcDbLine
 10
74.0477134142
 20
189.9088429776
 30
0.0
 11
73.4070908155
 21
190.6504645258
 31
0.0
  0
ARC
  5
16D
330
1F
100
AcDbEntity
  8
0
  6
Continuous
 62
     7
370
    25
100
AcDbCircle
 10
84.2554528907
 20
185.7201061641
 30
0.0
 40
0.4413791505394404
100
AcDbArc
 50
171.3561385714
 51
256.5652538732
  0
ARC
  5
16E
330
1F
100
AcDbEntity
  8
0
  6
Continuous
 62
     7
370
    25
100
AcDbCircle
 10
83.7680996158
 20
184.9413635913
 30
0.0
 40
0.8466151820896599
100
AcDbArc
 50
24.3825842282
 51
86.547267043
  0
LINE
  5
16F
330
1F
100
AcDbEntity
  8
0
  6
Continuous
 62
     7
370
    25
100
AcDbLine
 10
84.5392359086
 20
185.2908052837
 30
0.0
 11
84.6528276838
 21
185.2908052837
 31
0.0
  0
LINE
  5
170
330
1F
100
AcDbEntity
  8
0
  6
Continuous
 62
     7
370
    25
100
AcDbLine
 10
79.7575500973
 20
199.2908052837
 30
0.0
 11
84.5481052703
 21
199.2908052837
 31
0.0
  0
LINE
  5
171
330
1F
100
AcDbEntity
  8
0
  6
Continuous
 62
     7
370
    25
100
AcDbLine
 10
84.4276816478
 20
185.2908052837
 30
0.0
 11
84.5391507134
 21
185.2908052837
 31
0.0
  0
ARC
  5
172
330
1F
100
AcDbEntity
  8
0
  6
Continuous
 62
     7
370
    25
100
AcDbCircle
 10
49.3945471093
 20
185.7201061641
 30
0.0
 40
0.4413791505395259
100
AcDbArc
 50
283.4347461268
 51
8.6438614285
  0
ARC
  5
173
330
1F
100
AcDbEntity
  8
0
  6
Continuous
 62
     7
370
    25
100
AcDbCircle
 10
49.8819003842
 20
184.9413635913
 30
0.0
 40
0.8466151820896066
100
AcDbArc
 50
93.452732957
 51
155.6174157718
  0
LINE
  5
174
330
1F
100
AcDbEntity
  8
0
  6
Continuous
 62
     7
370
    25
100
AcDbLine
 10
49.1107640914
 20
185.2908052837
 30
0.0
 11
48.9971723162
 21
185.2908052837
 31
0.0
  0
LINE
  5
175
330
1F
100
AcDbEntity
  8
0
  6
Continuous
 62
     7
370
    25
100
AcDbLine
 10
53.8924499027
 20
199.2908052837
 30
0.0
 11
49.1018947297
 21
199.2908052837
 31
0.0
  0
LINE
  5
176
330
1F
100
AcDbEntity
  8
0
  6
Continuous
 62
     7
370
    25
100
AcDbLine
 10
49.4970961638
 20
185.2908052837
 30
0.0
 11
49.4957917149
 21
185.2908052837
 31
0.0
  0
LINE
  5
177
330
1F
100
AcDbEntity
  8
0
  6
Continuous
 62
     7
370
    25
100
AcDbLine
 10
49.222394958
 20
185.2908052837
 30
0.0
 11
49.1108492866
 21
185.2908052837
 31
0.0
  0
ARC
  5
178
330
1F
100
AcDbEntity
  8
0
  6
Continuous
 62
     7
370
    25
100
AcDbCircle
 10
49.709563651
 20
71.8650250183
 30
0.0
 40
112.9392510896367
100
AcDbArc
 50
89.4748087731
 51
90.4800072499
  0
ARC
  5
179
330
1F
100
AcDbEntity
  8
0
  6
Continuous
 62
     7
370
    25
100
AcDbCircle
 10
83.9404363175
 20
71.8650354719
 30
0.0
 40
112.9392406360869
100
AcDbArc
 50
89.5199926826
 51
90.5251912596
  0
LINE
  5
17A
330
1F
100
AcDbEntity
  8
0
  6
Continuous
 62
     7
370
    25
100
AcDbLine
 10
79.6571530401
 20
185.7864420159
 30
0.0
 11
83.8190870931
 21
185.7864420159
 31
0.0
  0
LINE
  5
17B
330
1F
100
AcDbEntity
  8
0
  6
Continuous
 62
     7
370
    25
100
AcDbLine
 10
79.7575500973
 20
197.2908052837
 30
0.0
 11
84.5481052703
 21
197.2908052837
 31
0.0
  0
LINE
  5
17C
330
1F
100
AcDbEntity
  8
0
  6
Continuous
 62
     7
370
    25
100
AcDbLine
 10
53.9928469599
 20
185.7864420159
 30
0.0
 11
49.8309129069
 21
185.7864420159
 31
0.0
  0
LINE
  5
17D
330
1F
100
AcDbEntity
  8
0
  6
Continuous
 62
     7
370
    25
100
AcDbLine
 10
53.8924499027
 20
197.2908052837
 30
0.0
 11
49.1018947297
 21
197.2908052837
 31
0.0
  0
INSERT
  5
189
330
1F
100
AcDbEntity
  8
0
  6
Continuous
 62
     7
370
    18
100
AcDbBlockReference
  2
SW_CENTERMARKSYMBOL_1
 10
82.7213511215
 20
197.8413024785
 30
0.0
  0
INSERT
  5
195
330
1F
100
AcDbEntity
  8
0
  6
Continuous
 62
     7
370
    18
100
AcDbBlockReference
  2
SW_CENTERMARKSYMBOL_2
 10
94.8492987516
 20
143.2649265707
 30
0.0
  0
INSERT
  5
1A1
330
1F
100
AcDbEntity
  8
0
  6
Continuous
 62
     7
370
    18
100
AcDbBlockReference
  2
SW_CENTERMARKSYMBOL_3
 10
50.9286488785
 20
197.8413024785
 30
0.0
  0
INSERT
  5
1AD
330
1F
100
AcDbEntity
  8
0
  6
Continuous
 62
     7
370
    18
100
AcDbBlockReference
  2
SW_CENTERMARKSYMBOL_4
 10
38.8926935756
 20
143.7462138153
 30
0.0
  0
ARC
  5
1AE
330
1F
100
AcDbEntity
  8
0
  6
Continuous
 62
     7
370
    25
100
AcDbCircle
 10
211.3749225895
 20
82.1135568729
 30
0.0
 40
0.5022211770273292
100
AcDbArc
 50
46.3532391003
 51
89.9513641337
  0
ARC
  5
1AF
330
1F
100
AcDbEntity
  8
0
  6
Continuous
 62
     7
370
    25
100
AcDbCircle
 10
211.3666792021
 20
47.4784305639
 30
0.0
 40
0.4992184223304889
100
AcDbArc
 50
270.9900166018
 51
349.306280665
  0
LWPOLYLINE
  5
1B0
330
1F
100
AcDbEntity
  8
0
  6
Continuous
 62
     7
370
    25
100
AcDbPolyline
 90
        7
 70
   128
 43
0.0
 10
211.8635748836
 20
47.4501595602
 10
211.8636479589
 20
47.5559187772
 10
211.8636949603
 20
47.7014292914
 10
211.8637395975
 20
47.9844539116
 10
211.8637351885
 20
48.3399141465
 10
211.8637307457
 20
48.6197233313
 10
211.8637214516
 20
48.9695949792
  0
LINE
  5
1B1
330
1F
100
AcDbEntity
  8
0
  6
Continuous
 62
     7
370
    25
100
AcDbLine
 10
211.8464299588
 20
47.3610835272
 30
0.0
 11
211.8637145476
 21
47.4250759335
 31
0.0
  0
LINE
  5
1B2
330
1F
100
AcDbEntity
  8
0
  6
Continuous
 62
     7
370
    25
100
AcDbLine
 10
219.5534470425
 20
58.3862496352
 30
0.0
 11
216.8546537198
 21
58.3862496352
 31
0.0
  0
LWPOLYLINE
  5
1B3
330
1F
100
AcDbEntity
  8
0
  6
Continuous
 62
     7
370
    25
100
AcDbPolyline
 90
       12
 70
   128
 43
0.0
 10
220.435295652
 20
61.73827177
 10
220.245348868
 20
61.7079613965
 10
220.051588821
 20
61.666361559
 10
219.9384265188
 20
61.634176327
 10
219.8144837998
 20
61.5854358959
 10
219.7179090542
 20
61.5289612364
 10
219.6272070158
 20
61.448569046
 10
219.5232714134
 20
61.2774728817
 10
219.4930102953
 20
61.1366170298
 10
219.5116109023
 20
60.9599681595
 10
219.5472033787
 20
60.8693949343
 10
219.5698209766
 20
60.8337051875
  0
ARC
  5
1B4
330
1F
100
AcDbEntity
  8
0
  6
Continuous
 62
     7
370
    25
100
AcDbCircle
 10
224.3707188696
 20
75.7735105767
 30
0.0
 40
15.40838657559935
100
AcDbArc
 50
275.1849993768
 51
279.2865814719
  0
LWPOLYLINE
  5
1B5
330
1F
100
AcDbEntity
  8
0
  6
Continuous
 62
     7
370
    25
100
AcDbPolyline
 90
       12
 70
   128
 43
0.0
 10
220.435295652
 20
63.53827177
 10
220.245348868
 20
63.5079613965
 10
220.051588821
 20
63.466361559
 10
219.9384265188
 20
63.434176327
 10
219.8144837998
 20
63.3854358959
 10
219.7179090542
 20
63.3289612364
 10
219.6272070158
 20
63.248569046
 10
219.5232714134
 20
63.0774728817
 10
219.4930102953
 20
62.9366170298
 10
219.5116109023
 20
62.7599681595
 10
219.5472033787
 20
62.6693949343
 10
219.5698209766
 20
62.6337051875
  0
ARC
  5
1B6
330
1F
100
AcDbEntity
  8
0
  6
Continuous
 62
     7
370
    25
100
AcDbCircle
 10
224.3707188696
 20
77.5735105767
 30
0.0
 40
15.40838657559361
100
AcDbArc
 50
275.1849993768
 51
279.2865814719
  0
LWPOLYLINE
  5
1B7
330
1F
100
AcDbEntity
  8
0
  6
Continuous
 62
     7
370
    25
100
AcDbPolyline
 90
       12
 70
   128
 43
0.0
 10
220.435295652
 20
65.33827177
 10
220.245348868
 20
65.3079613965
 10
220.051588821
 20
65.266361559
 10
219.9384265188
 20
65.234176327
 10
219.8144837998
 20
65.1854358959
 10
219.7179090542
 20
65.1289612364
 10
219.6272070158
 20
65.048569046
 10
219.5232714134
 20
64.8774728817
 10
219.4930102953
 20
64.7366170298
 10
219.5116109023
 20
64.5599681595
 10
219.5472033787
 20
64.4693949343
 10
219.5698209766
 20
64.4337051875
  0
ARC
  5
1B8
330
1F
100
AcDbEntity
  8
0
  6
Continuous
 62
     7
370
    25
100
AcDbCircle
 10
224.3707188696
 20
79.3735105768
 30
0.0
 40
15.40838657561249
100
AcDbArc
 50
275.1849993768
 51
279.2865814719
  0
LWPOLYLINE
  5
1B9
330
1F
100
AcDbEntity
  8
0
  6
Continuous
 62
     7
370
    25
100
AcDbPolyline
 90
       12
 70
   128
 43
0.0
 10
220.435295652
 20
67.13827177
 10
220.245348868
 20
67.1079613965
 10
220.051588821
 20
67.066361559
 10
219.9384265188
 20
67.034176327
 10
219.8144837998
 20
66.9854358959
 10
219.7179090542
 20
66.9289612364
 10
219.6272070158
 20
66.848569046
 10
219.5232714134
 20
66.6774728817
 10
219.4930102953
 20
66.5366170298
 10
219.5116109023
 20
66.3599681595
 10
219.5472033787
 20
66.2693949343
 10
219.5698209766
 20
66.2337051875
  0
ARC
  5
1BA
330
1F
100
AcDbEntity
  8
0
  6
Continuous
 62
     7
370
    25
100
AcDbCircle
 10
224.3707188696
 20
81.1735105768
 30
0.0
 40
15.40838657562441
100
AcDbArc
 50
275.1849993768
 51
279.2865814719
  0
LWPOLYLINE
  5
1BB
330
1F
100
AcDbEntity
  8
0
  6
Continuous
 62
     7
370
    25
100
AcDbPolyline
 90
       12
 70
   128
 43
0.0
 10
220.435295652
 20
68.93827177
 10
220.245348868
 20
68.9079613965
 10
220.051588821
 20
68.866361559
 10
219.9384265188
 20
68.834176327
 10
219.8144837998
 20
68.7854358959
 10
219.7179090542
 20
68.7289612364
 10
219.6272070158
 20
68.648569046
 10
219.5232714134
 20
68.4774728817
 10
219.4930102953
 20
68.3366170298
 10
219.5116109023
 20
68.1599681595
 10
219.5472033787
 20
68.0693949343
 10
219.5698209766
 20
68.0337051875
  0
ARC
  5
1BC
330
1F
100
AcDbEntity
  8
0
  6
Continuous
 62
     7
370
    25
100
AcDbCircle
 10
224.3707188696
 20
82.9735105767
 30
0.0
 40
15.40838657557173
100
AcDbArc
 50
275.1849993768
 51
279.2865814719
  0
ARC
  5
1BD
330
1F
100
AcDbEntity
  8
0
  6
Continuous
 62
     7
370
    25
100
AcDbCircle
 10
224.4474498538
 20
84.3359486136
 30
0.0
 40
14.96417809051508
100
AcDbArc
 50
275.4388523395
 51
279.2669977664
  0
ARC
  5
1BE
330
1F
100
AcDbEntity
  8
0
  6
Continuous
 62
     7
370
    25
100
AcDbCircle
 10
224.4474498538
 20
86.1359486136
 30
0.0
 40
14.96417809053249
100
AcDbArc
 50
275.4388523395
 51
279.2669977664
  0
LWPOLYLINE
  5
1BF
330
1F
100
AcDbEntity
  8
0
  6
Continuous
 62
     7
370
    25
100
AcDbPolyline
 90
       12
 70
   128
 43
0.0
 10
227.5947449137
 20
59.9340587432
 10
227.6073324544
 20
59.9524907773
 10
227.6452541623
 20
60.038569627
 10
227.6716371067
 20
60.2119688313
 10
227.6479369217
 20
60.3549737282
 10
227.5496683693
 20
60.5332580514
 10
227.4602130672
 20
60.6182522274
 10
227.3687010168
 20
60.6756730263
 10
227.2500638332
 20
60.7258133161
 10
227.0800948524
 20
60.7742360699
 10
226.8172638463
 20
60.8261751005
 10
226.7300436359
 20
60.8386267253
  0
LWPOLYLINE
  5
1C0
330
1F
100
AcDbEntity
  8
0
  6
Continuous
 62
     7
370
    25
100
AcDbPolyline
 90
       12
 70
   128
 43
0.0
 10
227.5947449137
 20
61.7340587432
 10
227.6073324544
 20
61.7524907773
 10
227.6452541623
 20
61.838569627
 10
227.6716371067
 20
62.0119688313
 10
227.6479369217
 20
62.1549737282
 10
227.5496683693
 20
62.3332580514
 10
227.4602130672
 20
62.4182522274
 10
227.3687010168
 20
62.4756730263
 10
227.2500638332
 20
62.5258133161
 10
227.0800948524
 20
62.5742360699
 10
226.8172638463
 20
62.6261751005
 10
226.7300436359
 20
62.6386267253
  0
LWPOLYLINE
  5
1C1
330
1F
100
AcDbEntity
  8
0
  6
Continuous
 62
     7
370
    25
100
AcDbPolyline
 90
       12
 70
   128
 43
0.0
 10
227.5947449137
 20
63.5340587432
 10
227.6073324544
 20
63.5524907773
 10
227.6452541623
 20
63.638569627
 10
227.6716371067
 20
63.8119688313
 10
227.6479369217
 20
63.9549737282
 10
227.5496683693
 20
64.1332580514
 10
227.4602130672
 20
64.2182522274
 10
227.3687010168
 20
64.2756730263
 10
227.2500638332
 20
64.3258133161
 10
227.0800948524
 20
64.3742360699
 10
226.8172638463
 20
64.4261751005
 10
226.7300436359
 20
64.4386267253
  0
LWPOLYLINE
  5
1C2
330
1F
100
AcDbEntity
  8
0
  6
Continuous
 62
     7
370
    25
100
AcDbPolyline
 90
       12
 70
   128
 43
0.0
 10
227.5947449137
 20
65.3340587432
 10
227.6073324544
 20
65.3524907773
 10
227.6452541623
 20
65.438569627
 10
227.6716371067
 20
65.6119688313
 10
227.6479369217
 20
65.7549737282
 10
227.5496683693
 20
65.9332580514
 10
227.4602130672
 20
66.0182522274
 10
227.3687010168
 20
66.0756730263
 10
227.2500638332
 20
66.1258133161
 10
227.0800948524
 20
66.1742360699
 10
226.8172638463
 20
66.2261751005
 10
226.7300436359
 20
66.2386267253
  0
LWPOLYLINE
  5
1C3
330
1F
100
AcDbEntity
  8
0
  6
Continuous
 62
     7
370
    25
100
AcDbPolyline
 90
       12
 70
   128
 43
0.0
 10
227.5947449137
 20
67.1340587432
 10
227.6073324544
 20
67.1524907773
 10
227.6452541623
 20
67.238569627
 10
227.6716371067
 20
67.4119688313
 10
227.6479369217
 20
67.5549737282
 10
227.5496683693
 20
67.7332580514
 10
227.4602130672
 20
67.8182522274
 10
227.3687010168
 20
67.8756730263
 10
227.2500638332
 20
67.9258133161
 10
227.0800948524
 20
67.9742360699
 10
226.8172638463
 20
68.0261751005
 10
226.7300436359
 20
68.0386267253
  0
LWPOLYLINE
  5
1C4
330
1F
100
AcDbEntity
  8
0
  6
Continuous
 62
     7
370
    25
100
AcDbPolyline
 90
       12
 70
   128
 43
0.0
 10
227.5947449137
 20
68.9340587432
 10
227.6073324544
 20
68.9524907773
 10
227.6452541623
 20
69.038569627
 10
227.6716371067
 20
69.2119688313
 10
227.6479369217
 20
69.3549737282
 10
227.5496683693
 20
69.5332580514
 10
227.4602130672
 20
69.6182522274
 10
227.3687010168
 20
69.6756730263
 10
227.2500638332
 20
69.7258133161
 10
227.0800948524
 20
69.7742360699
 10
226.8172638463
 20
69.8261751005
 10
226.7300436359
 20
69.8386267253
  0
LWPOLYLINE
  5
1C5
330
1F
100
AcDbEntity
  8
0
  6
Continuous
 62
     7
370
    25
100
AcDbPolyline
 90
       13
 70
   128
 43
0.0
 10
227.5947449137
 20
70.7340587432
 10
227.6073324544
 20
70.7524907773
 10
227.6452541623
 20
70.838569627
 10
227.6716371067
 20
71.0119688313
 10
227.6479369217
 20
71.1549737282
 10
227.5496683693
 20
71.3332580514
 10
227.4602130672
 20
71.4182522274
 10
227.3687010168
 20
71.4756730263
 10
227.2500638332
 20
71.5258133161
 10
227.0800948524
 20
71.5742360699
 10
226.8172638463
 20
71.6261751005
 10
226.4149957144
 20
71.6836032105
 10
225.8658052837
 20
71.7436006
  0
LWPOLYLINE
  5
1C6
330
1F
100
AcDbEntity
  8
0
  6
Continuous
 62
     7
370
    25
100
AcDbPolyline
 90
       12
 70
   128
 43
0.0
 10
227.5947449137
 20
58.1340587432
 10
227.6073324544
 20
58.1524907773
 10
227.6452541623
 20
58.238569627
 10
227.6716371067
 20
58.4119688313
 10
227.6479369217
 20
58.5549737282
 10
227.5496683693
 20
58.7332580514
 10
227.4602130672
 20
58.8182522274
 10
227.3687010168
 20
58.8756730263
 10
227.2500638332
 20
58.9258133161
 10
227.0800948524
 20
58.9742360699
 10
226.8172638463
 20
59.0261751005
 10
226.7300436359
 20
59.0386267253
  0
ARC
  5
1C7
330
1F
100
AcDbEntity
  8
0
  6
Continuous
 62
     7
370
    25
100
AcDbCircle
 10
224.4474498538
 20
73.5359486136
 30
0.0
 40
14.96417809054685
100
AcDbArc
 50
275.4388523395
 51
279.2669977664
  0
LWPOLYLINE
  5
1C8
330
1F
100
AcDbEntity
  8
0
  6
Continuous
 62
     7
370
    25
100
AcDbPolyline
 90
       12
 70
   128
 43
0.0
 10
220.435295652
 20
59.93827177
 10
220.245348868
 20
59.9079613965
 10
220.051588821
 20
59.866361559
 10
219.9384265188
 20
59.834176327
 10
219.8144837998
 20
59.7854358959
 10
219.7179090542
 20
59.7289612364
 10
219.6272070158
 20
59.648569046
 10
219.5232714134
 20
59.4774728817
 10
219.4930102953
 20
59.3366170298
 10
219.5116109023
 20
59.1599681595
 10
219.5472033787
 20
59.0693949343
 10
219.5698209766
 20
59.0337051875
  0
LINE
  5
1C9
330
1F
100
AcDbEntity
  8
0
  6
Continuous
 62
     7
370
    25
100
AcDbLine
 10
219.6765766619
 20
58.3862496352
 30
0.0
 11
219.5534470425
 21
58.3862496352
 31
0.0
  0
LINE
  5
1CA
330
1F
100
AcDbEntity
  8
0
  6
Continuous
 62
     7
370
    25
100
AcDbLine
 10
219.8858285191
 20
58.1134758075
 30
0.0
 11
219.9161895378
 21
57.9380336908
 31
0.0
  0
LINE
  5
1CB
330
1F
100
AcDbEntity
  8
0
  6
Continuous
 62
     7
370
    25
100
AcDbLine
 10
219.5201801272
 20
59.1381618002
 30
0.0
 11
215.8658052837
 21
59.0520886107
 31
0.0
  0
LINE
  5
1CC
330
1F
100
AcDbEntity
  8
0
  6
Continuous
 62
     7
370
    25
100
AcDbLine
 10
172.8658052837
 20
58.0392896207
 30
0.0
 11
170.8112138153
 21
57.9908968727
 31
0.0
  0
LINE
  5
1CD
330
1F
100
AcDbEntity
  8
0
  6
Continuous
 62
     7
370
    25
100
AcDbLine
 10
215.8658052837
 20
58.0718168131
 30
0.0
 11
216.5131138866
 21
58.0870631736
 31
0.0
  0
LINE
  5
1CE
330
1F
100
AcDbEntity
  8
0
  6
Continuous
 62
     7
370
    25
100
AcDbLine
 10
224.4389924929
 20
60.5443779984
 30
0.0
 11
224.4389924929
 21
60.6029551812
 31
0.0
  0
LINE
  5
1CF
330
1F
100
AcDbEntity
  8
0
  6
Continuous
 62
     7
370
    25
100
AcDbLine
 10
224.4389924929
 20
62.3443779984
 30
0.0
 11
224.4389924929
 21
62.4029551812
 31
0.0
  0
LINE
  5
1D0
330
1F
100
AcDbEntity
  8
0
  6
Continuous
 62
     7
370
    25
100
AcDbLine
 10
215.8658052837
 20
70.9062496352
 30
0.0
 11
216.4878202066
 21
70.9062496352
 31
0.0
  0
LINE
  5
1D1
330
1F
100
AcDbEntity
  8
0
  6
Continuous
 62
     7
370
    25
100
AcDbLine
 10
220.8658052837
 20
71.8862496352
 30
0.0
 11
215.8658052837
 21
71.8862496352
 31
0.0
  0
LINE
  5
1D2
330
1F
100
AcDbEntity
  8
0
  6
Continuous
 62
     7
370
    25
100
AcDbLine
 10
172.8658052837
 20
71.8862496352
 30
0.0
 11
169.8399265707
 21
71.8862496352
 31
0.0
  0
LINE
  5
1D3
330
1F
100
AcDbEntity
  8
0
  6
Continuous
 62
     7
370
    25
100
AcDbLine
 10
169.8312138153
 20
71.8775368797
 30
0.0
 11
169.8312138153
 21
71.8742815217
 31
0.0
  0
LINE
  5
1D4
330
1F
100
AcDbEntity
  8
0
  6
Continuous
 62
     7
370
    25
100
AcDbLine
 10
169.8399265707
 20
56.987824573
 30
0.0
 11
224.2576194722
 21
56.987824573
 31
0.0
  0
LINE
  5
1D5
330
1F
100
AcDbEntity
  8
0
  6
Continuous
 62
     7
370
    25
100
AcDbLine
 10
224.2576194722
 20
57.967824573
 30
0.0
 11
170.8112138153
 21
57.967824573
 31
0.0
  0
LINE
  5
1D6
330
1F
100
AcDbEntity
  8
0
  6
Continuous
 62
     7
370
    25
100
AcDbLine
 10
223.8658052837
 20
70.613829676
 30
0.0
 11
169.8434604256
 21
71.8862430785
 31
0.0
  0
LINE
  5
1D7
330
1F
100
AcDbEntity
  8
0
  6
Continuous
 62
     7
370
    25
100
AcDbLine
 10
170.8112138153
 20
70.8831773355
 30
0.0
 11
220.4969384429
 21
69.7129063653
 31
0.0
  0
LINE
  5
1D8
330
1F
100
AcDbEntity
  8
0
  6
Continuous
 62
     7
370
    25
100
AcDbLine
 10
169.8312138153
 20
71.8742815217
 30
0.0
 11
169.8312138153
 21
56.9965373285
 31
0.0
  0
LINE
  5
1D9
330
1F
100
AcDbEntity
  8
0
  6
Continuous
 62
     7
370
    25
100
AcDbLine
 10
170.8112138153
 20
57.9591118175
 30
0.0
 11
170.8112138153
 21
70.8954273424
 31
0.0
  0
LWPOLYLINE
  5
1DA
330
1F
100
AcDbEntity
  8
0
  6
Continuous
 62
     7
370
    25
100
AcDbPolyline
 90
       35
 70
   128
 43
0.0
 10
220.3103074944
 20
67.4102224005
 10
220.305991867
 20
67.4042967242
 10
220.3778132642
 20
67.413868973
 10
220.5309800162
 20
67.4396368035
 10
220.7440821984
 20
67.4704016088
 10
221.3098662408
 20
67.5373124971
 10
222.0129314802
 20
67.6043024209
 10
222.7150014701
 20
67.6634812034
 10
223.363868105
 20
67.7166600259
 10
224.0869825163
 20
67.7743852739
 10
224.8998621115
 20
67.8403603774
 10
225.7179368295
 20
67.9154195816
 10
226.4015705511
 20
67.9891093138
 10
226.9332579678
 20
68.0692613439
 10
227.1720206128
 20
68.1236595635
 10
227.3117621735
 20
68.1715696932
 10
227.3876358952
 20
68.2134129167
 10
227.4140016751
 20
68.2315787086
 10
227.447294642
 20
68.2551843919
 10
227.4669583199
 20
68.2699544272
 10
227.4886499715
 20
68.2873625774
 10
227.5121982916
 20
68.3080075789
 10
227.5372013567
 20
68.3325293692
 10
227.618419982
 20
68.4475792716
 10
227.6604057095
 20
68.5663209756
 10
227.6717419301
 20
68.6696525986
 10
227.6620912029
 20
68.7719710859
 10
227.6143528526
 20
68.9081116849
 10
227.5064491586
 20
69.0508999434
 10
227.3722924671
 20
69.1466577229
 10
227.2338450661
 20
69.2053607601
 10
226.8861243761
 20
69.2877493252
 10
226.4040004653
 20
69.357424546
 10
226.0952930001
 20
69.3936786789
 10
225.8658052837
 20
69.4175161467
  0
LWPOLYLINE
  5
1DB
330
1F
100
AcDbEntity
  8
0
  6
Continuous
 62
     7
370
    25
100
AcDbPolyline
 90
       38
 70
   128
 43
0.0
 10
220.3103074944
 20
65.6102224005
 10
220.305991867
 20
65.6042967242
 10
220.3778132642
 20
65.613868973
 10
220.5309800162
 20
65.6396368035
 10
220.7440821984
 20
65.6704016088
 10
221.3098662408
 20
65.7373124971
 10
222.0129314802
 20
65.8043024209
 10
222.7150014701
 20
65.8634812034
 10
223.363868105
 20
65.9166600259
 10
224.0869825163
 20
65.9743852739
 10
224.8998621115
 20
66.0403603774
 10
225.7179368295
 20
66.1154195816
 10
226.4015705511
 20
66.1891093138
 10
226.9332579678
 20
66.2692613439
 10
227.1720206128
 20
66.3236595635
 10
227.3117621735
 20
66.3715696932
 10
227.3876358952
 20
66.4134129167
 10
227.4140016751
 20
66.4315787086
 10
227.447294642
 20
66.4551843919
 10
227.4669583199
 20
66.4699544272
 10
227.4886499715
 20
66.4873625774
 10
227.5121982916
 20
66.5080075789
 10
227.5372013567
 20
66.5325293692
 10
227.618419982
 20
66.6475792716
 10
227.6604057095
 20
66.7663209756
 10
227.6717419301
 20
66.8696525986
 10
227.6620912029
 20
66.9719710859
 10
227.6143528526
 20
67.1081116849
 10
227.5064491586
 20
67.2508999434
 10
227.3722924671
 20
67.3466577229
 10
227.2338450661
 20
67.4053607601
 10
226.8861243761
 20
67.4877493252
 10
226.4040004653
 20
67.557424546
 10
226.0952930001
 20
67.5936786789
 10
225.6885688341
 20
67.6359261436
 10
225.1685283133
 20
67.6834390419
 10
224.5259999344
 20
67.7372671416
 10
224.4389924929
 20
67.7443779984
  0
LWPOLYLINE
  5
1DC
330
1F
100
AcDbEntity
  8
0
  6
Continuous
 62
     7
370
    25
100
AcDbPolyline
 90
       38
 70
   128
 43
0.0
 10
220.3103074944
 20
63.8102224005
 10
220.305991867
 20
63.8042967242
 10
220.3778132642
 20
63.813868973
 10
220.5309800162
 20
63.8396368035
 10
220.7440821984
 20
63.8704016088
 10
221.3098662408
 20
63.9373124971
 10
222.0129314802
 20
64.0043024209
 10
222.7150014701
 20
64.0634812034
 10
223.363868105
 20
64.1166600259
 10
224.0869825163
 20
64.1743852739
 10
224.8998621115
 20
64.2403603774
 10
225.7179368295
 20
64.3154195816
 10
226.4015705511
 20
64.3891093138
 10
226.9332579678
 20
64.4692613439
 10
227.1720206128
 20
64.5236595635
 10
227.3117621735
 20
64.5715696932
 10
227.3876358952
 20
64.6134129167
 10
227.4140016751
 20
64.6315787086
 10
227.447294642
 20
64.6551843919
 10
227.4669583199
 20
64.6699544272
 10
227.4886499715
 20
64.6873625774
 10
227.5121982916
 20
64.7080075789
 10
227.5372013567
 20
64.7325293692
 10
227.618419982
 20
64.8475792716
 10
227.6604057095
 20
64.9663209756
 10
227.6717419301
 20
65.0696525986
 10
227.6620912029
 20
65.1719710859
 10
227.6143528526
 20
65.3081116849
 10
227.5064491586
 20
65.4508999434
 10
227.3722924671
 20
65.5466577229
 10
227.2338450661
 20
65.6053607601
 10
226.8861243761
 20
65.6877493252
 10
226.4040004653
 20
65.757424546
 10
226.0952930001
 20
65.7936786789
 10
225.6885688341
 20
65.8359261436
 10
225.1685283133
 20
65.8834390419
 10
224.5259999344
 20
65.9372671416
 10
224.0793160679
 20
65.9737732717
  0
LWPOLYLINE
  5
1DD
330
1F
100
AcDbEntity
  8
0
  6
Continuous
 62
     7
370
    25
100
AcDbPolyline
 90
       38
 70
   128
 43
0.0
 10
220.3103074944
 20
62.0102224005
 10
220.305991867
 20
62.0042967242
 10
220.3778132642
 20
62.013868973
 10
220.5309800162
 20
62.0396368035
 10
220.7440821984
 20
62.0704016088
 10
221.3098662408
 20
62.1373124971
 10
222.0129314802
 20
62.2043024209
 10
222.7150014701
 20
62.2634812034
 10
223.363868105
 20
62.3166600259
 10
224.0869825163
 20
62.3743852739
 10
224.8998621115
 20
62.4403603774
 10
225.7179368295
 20
62.5154195816
 10
226.4015705511
 20
62.5891093138
 10
226.9332579678
 20
62.6692613439
 10
227.1720206128
 20
62.7236595635
 10
227.3117621735
 20
62.7715696932
 10
227.3876358952
 20
62.8134129167
 10
227.4140016751
 20
62.8315787086
 10
227.447294642
 20
62.8551843919
 10
227.4669583199
 20
62.8699544272
 10
227.4886499715
 20
62.8873625774
 10
227.5121982916
 20
62.9080075789
 10
227.5372013567
 20
62.9325293692
 10
227.618419982
 20
63.0475792716
 10
227.6604057095
 20
63.1663209756
 10
227.6717419301
 20
63.2696525986
 10
227.6620912029
 20
63.3719710859
 10
227.6143528526
 20
63.5081116849
 10
227.5064491586
 20
63.6508999434
 10
227.3722924671
 20
63.7466577229
 10
227.2338450661
 20
63.8053607601
 10
226.8861243761
 20
63.8877493252
 10
226.4040004653
 20
63.957424546
 10
226.0952930001
 20
63.9936786789
 10
225.6885688341
 20
64.0359261436
 10
225.1685283133
 20
64.0834390419
 10
224.5259999344
 20
64.1372671416
 10
224.0793160679
 20
64.1737732717
  0
LWPOLYLINE
  5
1DE
330
1F
100
AcDbEntity
  8
0
  6
Continuous
 62
     7
370
    25
100
AcDbPolyline
 90
       38
 70
   128
 43
0.0
 10
220.3103074944
 20
60.2102224005
 10
220.305991867
 20
60.2042967242
 10
220.3778132642
 20
60.213868973
 10
220.5309800162
 20
60.2396368035
 10
220.7440821984
 20
60.2704016088
 10
221.3098662408
 20
60.3373124971
 10
222.0129314802
 20
60.4043024209
 10
222.7150014701
 20
60.4634812034
 10
223.363868105
 20
60.5166600259
 10
224.0869825163
 20
60.5743852739
 10
224.8998621115
 20
60.6403603774
 10
225.7179368295
 20
60.7154195816
 10
226.4015705511
 20
60.7891093138
 10
226.9332579678
 20
60.8692613439
 10
227.1720206128
 20
60.9236595635
 10
227.3117621735
 20
60.9715696932
 10
227.3876358952
 20
61.0134129167
 10
227.4140016751
 20
61.0315787086
 10
227.447294642
 20
61.0551843919
 10
227.4669583199
 20
61.0699544272
 10
227.4886499715
 20
61.0873625774
 10
227.5121982916
 20
61.1080075789
 10
227.5372013567
 20
61.1325293692
 10
227.618419982
 20
61.2475792716
 10
227.6604057095
 20
61.3663209756
 10
227.6717419301
 20
61.4696525986
 10
227.6620912029
 20
61.5719710859
 10
227.6143528526
 20
61.7081116849
 10
227.5064491586
 20
61.8508999434
 10
227.3722924671
 20
61.9466577229
 10
227.2338450661
 20
62.0053607601
 10
226.8861243761
 20
62.0877493252
 10
226.4040004653
 20
62.157424546
 10
226.0952930001
 20
62.1936786789
 10
225.6885688341
 20
62.2359261436
 10
225.1685283133
 20
62.2834390419
 10
224.5259999344
 20
62.3372671416
 10
224.0793160679
 20
62.3737732717
  0
LWPOLYLINE
  5
1DF
330
1F
100
AcDbEntity
  8
0
  6
Continuous
 62
     7
370
    25
100
AcDbPolyline
 90
       38
 70
   128
 43
0.0
 10
220.3103074944
 20
58.4102224005
 10
220.305991867
 20
58.4042967242
 10
220.3778132642
 20
58.413868973
 10
220.5309800162
 20
58.4396368035
 10
220.7440821984
 20
58.4704016088
 10
221.3098662408
 20
58.5373124971
 10
222.0129314802
 20
58.6043024209
 10
222.7150014701
 20
58.6634812034
 10
223.363868105
 20
58.7166600259
 10
224.0869825163
 20
58.7743852739
 10
224.8998621115
 20
58.8403603774
 10
225.7179368295
 20
58.9154195816
 10
226.4015705511
 20
58.9891093138
 10
226.9332579678
 20
59.0692613439
 10
227.1720206128
 20
59.1236595635
 10
227.3117621735
 20
59.1715696932
 10
227.3876358952
 20
59.2134129167
 10
227.4140016751
 20
59.2315787086
 10
227.447294642
 20
59.2551843919
 10
227.4669583199
 20
59.2699544272
 10
227.4886499715
 20
59.2873625774
 10
227.5121982916
 20
59.3080075789
 10
227.5372013567
 20
59.3325293692
 10
227.618419982
 20
59.4475792716
 10
227.6604057095
 20
59.5663209756
 10
227.6717419301
 20
59.6696525986
 10
227.6620912029
 20
59.7719710859
 10
227.6143528526
 20
59.9081116849
 10
227.5064491586
 20
60.0508999434
 10
227.3722924671
 20
60.1466577229
 10
227.2338450661
 20
60.2053607601
 10
226.8861243761
 20
60.2877493252
 10
226.4040004653
 20
60.357424546
 10
226.0952930001
 20
60.3936786789
 10
225.6885688341
 20
60.4359261436
 10
225.1685283133
 20
60.4834390419
 10
224.5259999344
 20
60.5372671416
 10
224.0793160679
 20
60.5737732717
  0
LWPOLYLINE
  5
1E0
330
1F
100
AcDbEntity
  8
0
  6
Continuous
 62
     7
370
    25
100
AcDbPolyline
 90
       26
 70
   128
 43
0.0
 10
224.256975192
 20
56.9882133306
 10
224.8998621115
 20
57.0403603774
 10
225.7179368295
 20
57.1154195816
 10
226.4015705511
 20
57.1891093138
 10
226.9332579678
 20
57.2692613439
 10
227.1720206128
 20
57.3236595635
 10
227.3117621735
 20
57.3715696932
 10
227.3876358952
 20
57.4134129167
 10
227.4140016751
 20
57.4315787086
 10
227.447294642
 20
57.4551843919
 10
227.4669583199
 20
57.4699544272
 10
227.4886499715
 20
57.4873625774
 10
227.5121982916
 20
57.5080075789
 10
227.5372013567
 20
57.5325293692
 10
227.618419982
 20
57.6475792716
 10
227.6604057095
 20
57.7663209756
 10
227.6717419301
 20
57.8696525986
 10
227.6620912029
 20
57.9719710859
 10
227.6143528526
 20
58.1081116849
 10
227.5064491586
 20
58.2508999434
 10
227.3722924671
 20
58.3466577229
 10
227.2338450661
 20
58.4053607601
 10
226.8861243761
 20
58.4877493252
 10
226.4040004653
 20
58.557424546
 10
226.0952930001
 20
58.5936786789
 10
225.8658052837
 20
58.6175161467
  0
LINE
  5
1E1
330
1F
100
AcDbEntity
  8
0
  6
Continuous
 62
     7
370
    25
100
AcDbLine
 10
222.9046943337
 20
68.6878663275
 30
0.0
 11
223.082899438
 21
68.6737410737
 31
0.0
  0
LWPOLYLINE
  5
1E2
330
1F
100
AcDbEntity
  8
0
  6
Continuous
 62
     7
370
    25
100
AcDbPolyline
 90
       40
 70
   128
 43
0.0
 10
226.9603204925
 20
69.0940853032
 10
226.9612287256
 20
69.0940762669
 10
226.9151782762
 20
69.0657771095
 10
226.8364367857
 20
69.0444368826
 10
226.7020838826
 20
69.0178495809
 10
226.283433237
 20
68.9581547608
 10
225.7046430828
 20
68.8957180547
 10
224.9949916306
 20
68.8291536508
 10
224.2522121248
 20
68.7674521524
 10
223.5408117326
 20
68.7109332585
 10
222.8838299903
 20
68.6575724148
 10
222.2046289032
 20
68.6011673957
 10
221.4843401394
 20
68.5368457298
 10
220.794253759
 20
68.4617118118
 10
220.2984978524
 20
68.3913101429
 10
219.9684080902
 20
68.3177114346
 10
219.7207088949
 20
68.2031620215
 10
219.6006330413
 20
68.0885434804
 10
219.5247451374
 20
67.953480701
 10
219.4956364013
 20
67.8359359988
 10
219.4924421092
 20
67.7467462954
 10
219.5077986455
 20
67.6465465517
 10
219.5515845936
 20
67.535195895
 10
219.6296709795
 20
67.429048535
 10
219.6743241373
 20
67.3880382431
 10
219.6940477946
 20
67.3723767535
 10
219.7117509571
 20
67.3592426876
 10
219.740867726
 20
67.338867648
 10
219.7695783169
 20
67.3185135705
 10
219.7952754909
 20
67.3001822557
 10
219.8710254869
 20
67.2635443945
 10
220.0413279897
 20
67.2120365223
 10
220.3734564386
 20
67.1466049191
 10
220.9306662404
 20
67.0715180597
 10
221.3121756347
 20
67.0301349025
 10
221.7729978777
 20
66.984759497
 10
222.3086248633
 20
66.9366763531
 10
222.9046943337
 20
66.8878663275
 10
222.9046943337
 20
66.8878663275
 10
223.082899438
 20
66.8737410737
  0
LWPOLYLINE
  5
1E3
330
1F
100
AcDbEntity
  8
0
  6
Continuous
 62
     7
370
    25
100
AcDbPolyline
 90
       40
 70
   128
 43
0.0
 10
226.9603204925
 20
67.2940853032
 10
226.9612287256
 20
67.2940762669
 10
226.9151782762
 20
67.2657771095
 10
226.8364367857
 20
67.2444368826
 10
226.7020838826
 20
67.2178495809
 10
226.283433237
 20
67.1581547608
 10
225.7046430828
 20
67.0957180547
 10
224.9949916306
 20
67.0291536508
 10
224.2522121248
 20
66.9674521524
 10
223.5408117326
 20
66.9109332585
 10
222.8838299903
 20
66.8575724148
 10
222.2046289032
 20
66.8011673957
 10
221.4843401394
 20
66.7368457298
 10
220.794253759
 20
66.6617118118
 10
220.2984978524
 20
66.5913101429
 10
219.9684080902
 20
66.5177114346
 10
219.7207088949
 20
66.4031620215
 10
219.6006330413
 20
66.2885434804
 10
219.5247451374
 20
66.153480701
 10
219.4956364013
 20
66.0359359988
 10
219.4924421092
 20
65.9467462954
 10
219.5077986455
 20
65.8465465517
 10
219.5515845936
 20
65.735195895
 10
219.6296709795
 20
65.629048535
 10
219.6743241373
 20
65.5880382431
 10
219.6940477946
 20
65.5723767535
 10
219.7117509571
 20
65.5592426876
 10
219.740867726
 20
65.538867648
 10
219.7695783169
 20
65.5185135705
 10
219.7952754909
 20
65.5001822557
 10
219.8710254869
 20
65.4635443945
 10
220.0413279897
 20
65.4120365223
 10
220.3734564386
 20
65.3466049191
 10
220.9306662404
 20
65.2715180597
 10
221.3121756347
 20
65.2301349025
 10
221.7729978777
 20
65.184759497
 10
222.3086248633
 20
65.1366763531
 10
222.9046943337
 20
65.0878663275
 10
222.9046943337
 20
65.0878663275
 10
223.082899438
 20
65.0737410737
  0
LWPOLYLINE
  5
1E4
330
1F
100
AcDbEntity
  8
0
  6
Continuous
 62
     7
370
    25
100
AcDbPolyline
 90
       40
 70
   128
 43
0.0
 10
226.9603204925
 20
65.4940853032
 10
226.9612287256
 20
65.4940762669
 10
226.9151782762
 20
65.4657771095
 10
226.8364367857
 20
65.4444368826
 10
226.7020838826
 20
65.4178495809
 10
226.283433237
 20
65.3581547608
 10
225.7046430828
 20
65.2957180547
 10
224.9949916306
 20
65.2291536508
 10
224.2522121248
 20
65.1674521524
 10
223.5408117326
 20
65.1109332585
 10
222.8838299903
 20
65.0575724148
 10
222.2046289032
 20
65.0011673957
 10
221.4843401394
 20
64.9368457298
 10
220.794253759
 20
64.8617118118
 10
220.2984978524
 20
64.7913101429
 10
219.9684080902
 20
64.7177114346
 10
219.7207088949
 20
64.6031620215
 10
219.6006330413
 20
64.4885434804
 10
219.5247451374
 20
64.353480701
 10
219.4956364013
 20
64.2359359988
 10
219.4924421092
 20
64.1467462954
 10
219.5077986455
 20
64.0465465517
 10
219.5515845936
 20
63.935195895
 10
219.6296709795
 20
63.829048535
 10
219.6743241373
 20
63.7880382431
 10
219.6940477946
 20
63.7723767535
 10
219.7117509571
 20
63.7592426876
 10
219.740867726
 20
63.738867648
 10
219.7695783169
 20
63.7185135705
 10
219.7952754909
 20
63.7001822557
 10
219.8710254869
 20
63.6635443945
 10
220.0413279897
 20
63.6120365223
 10
220.3734564386
 20
63.5466049191
 10
220.9306662404
 20
63.4715180597
 10
221.3121756347
 20
63.4301349025
 10
221.7729978777
 20
63.384759497
 10
222.3086248633
 20
63.3366763531
 10
222.9046943337
 20
63.2878663275
 10
222.9046943337
 20
63.2878663275
 10
223.082899438
 20
63.2737410737
  0
LWPOLYLINE
  5
1E5
330
1F
100
AcDbEntity
  8
0
  6
Continuous
 62
     7
370
    25
100
AcDbPolyline
 90
       40
 70
   128
 43
0.0
 10
226.9603204925
 20
63.6940853032
 10
226.9612287256
 20
63.6940762669
 10
226.9151782762
 20
63.6657771095
 10
226.8364367857
 20
63.6444368826
 10
226.7020838826
 20
63.6178495809
 10
226.283433237
 20
63.5581547608
 10
225.7046430828
 20
63.4957180547
 10
224.9949916306
 20
63.4291536508
 10
224.2522121248
 20
63.3674521524
 10
223.5408117326
 20
63.3109332585
 10
222.8838299903
 20
63.2575724148
 10
222.2046289032
 20
63.2011673957
 10
221.4843401394
 20
63.1368457298
 10
220.794253759
 20
63.0617118118
 10
220.2984978524
 20
62.9913101429
 10
219.9684080902
 20
62.9177114346
 10
219.7207088949
 20
62.8031620215
 10
219.6006330413
 20
62.6885434804
 10
219.5247451374
 20
62.553480701
 10
219.4956364013
 20
62.4359359988
 10
219.4924421092
 20
62.3467462954
 10
219.5077986455
 20
62.2465465517
 10
219.5515845936
 20
62.135195895
 10
219.6296709795
 20
62.029048535
 10
219.6743241373
 20
61.9880382431
 10
219.6940477946
 20
61.9723767535
 10
219.7117509571
 20
61.9592426876
 10
219.740867726
 20
61.938867648
 10
219.7695783169
 20
61.9185135705
 10
219.7952754909
 20
61.9001822557
 10
219.8710254869
 20
61.8635443945
 10
220.0413279897
 20
61.8120365223
 10
220.3734564386
 20
61.7466049191
 10
220.9306662404
 20
61.6715180597
 10
221.3121756347
 20
61.6301349025
 10
221.7729978777
 20
61.584759497
 10
222.3086248633
 20
61.5366763531
 10
222.9046943337
 20
61.4878663275
 10
222.9046943337
 20
61.4878663275
 10
223.082899438
 20
61.4737410737
  0
LWPOLYLINE
  5
1E6
330
1F
100
AcDbEntity
  8
0
  6
Continuous
 62
     7
370
    25
100
AcDbPolyline
 90
       34
 70
   128
 43
0.0
 10
226.9603204925
 20
61.8940853032
 10
226.9612287256
 20
61.8940762669
 10
226.9151782762
 20
61.8657771095
 10
226.8364367857
 20
61.8444368826
 10
226.7020838826
 20
61.8178495809
 10
226.283433237
 20
61.7581547608
 10
225.7046430828
 20
61.6957180547
 10
224.9949916306
 20
61.6291536508
 10
224.2522121248
 20
61.5674521524
 10
223.5408117326
 20
61.5109332585
 10
222.8838299903
 20
61.4575724148
 10
222.2046289032
 20
61.4011673957
 10
221.4843401394
 20
61.3368457298
 10
220.794253759
 20
61.2617118118
 10
220.2984978524
 20
61.1913101429
 10
219.9684080902
 20
61.1177114346
 10
219.7207088949
 20
61.0031620215
 10
219.6006330413
 20
60.8885434804
 10
219.5247451374
 20
60.753480701
 10
219.4956364013
 20
60.6359359988
 10
219.4924421092
 20
60.5467462954
 10
219.5077986455
 20
60.4465465517
 10
219.5515845936
 20
60.335195895
 10
219.6296709795
 20
60.229048535
 10
219.6743241373
 20
60.1880382431
 10
219.6940477946
 20
60.1723767535
 10
219.7117509571
 20
60.1592426876
 10
219.740867726
 20
60.138867648
 10
219.7695783169
 20
60.1185135705
 10
219.7952754909
 20
60.1001822557
 10
219.8710254869
 20
60.0635443945
 10
220.0413279897
 20
60.0120365223
 10
220.3734564386
 20
59.9466049191
 10
220.8658052837
 20
59.8802584041
  0
LWPOLYLINE
  5
1E7
330
1F
100
AcDbEntity
  8
0
  6
Continuous
 62
     7
370
    25
100
AcDbPolyline
 90
       34
 70
   128
 43
0.0
 10
226.9603204925
 20
60.0940853032
 10
226.9612287256
 20
60.0940762669
 10
226.9151782762
 20
60.0657771095
 10
226.8364367857
 20
60.0444368826
 10
226.7020838826
 20
60.0178495809
 10
226.283433237
 20
59.9581547608
 10
225.7046430828
 20
59.8957180547
 10
224.9949916306
 20
59.8291536508
 10
224.2522121248
 20
59.7674521524
 10
223.5408117326
 20
59.7109332585
 10
222.8838299903
 20
59.6575724148
 10
222.2046289032
 20
59.6011673957
 10
221.4843401394
 20
59.5368457298
 10
220.794253759
 20
59.4617118118
 10
220.2984978524
 20
59.3913101429
 10
219.9684080902
 20
59.3177114346
 10
219.7207088949
 20
59.2031620215
 10
219.6006330413
 20
59.0885434804
 10
219.5247451374
 20
58.953480701
 10
219.4956364013
 20
58.8359359988
 10
219.4924421092
 20
58.7467462954
 10
219.5077986455
 20
58.6465465517
 10
219.5515845936
 20
58.535195895
 10
219.6296709795
 20
58.429048535
 10
219.6743241373
 20
58.3880382431
 10
219.6940477946
 20
58.3723767535
 10
219.7117509571
 20
58.3592426876
 10
219.740867726
 20
58.338867648
 10
219.7695783169
 20
58.3185135705
 10
219.7952754909
 20
58.3001822557
 10
219.8710254869
 20
58.2635443945
 10
220.0413279897
 20
58.2120365223
 10
220.3734564386
 20
58.1466049191
 10
220.8658052837
 20
58.0802584041
  0
LWPOLYLINE
  5
1E8
330
1F
100
AcDbEntity
  8
0
  6
Continuous
 62
     7
370
    25
100
AcDbPolyline
 90
        9
 70
   128
 43
0.0
 10
226.9603204925
 20
58.2940853032
 10
226.9612287256
 20
58.2940762669
 10
226.9151782762
 20
58.2657771095
 10
226.8364367857
 20
58.2444368826
 10
226.7020838826
 20
58.2178495809
 10
226.283433237
 20
58.1581547608
 10
225.7046430828
 20
58.0957180547
 10
224.9949916306
 20
58.0291536508
 10
224.2555908593
 20
57.9677328371
  0
LWPOLYLINE
  5
1E9
330
1F
100
AcDbEntity
  8
0
  6
Continuous
 62
     7
370
    25
100
AcDbPolyline
 90
       20
 70
   128
 43
0.0
 10
219.5203932871
 20
69.7359073873
 10
219.4956364013
 20
69.6359359988
 10
219.4924421092
 20
69.5467462954
 10
219.5077986455
 20
69.4465465517
 10
219.5515845936
 20
69.335195895
 10
219.6296709795
 20
69.229048535
 10
219.6743241373
 20
69.1880382431
 10
219.6940477946
 20
69.1723767535
 10
219.7117509571
 20
69.1592426876
 10
219.740867726
 20
69.138867648
 10
219.7695783169
 20
69.1185135705
 10
219.7952754909
 20
69.1001822557
 10
219.8710254869
 20
69.0635443945
 10
220.0413279897
 20
69.0120365223
 10
220.3734564386
 20
68.9466049191
 10
220.9306662404
 20
68.8715180597
 10
221.3121756347
 20
68.8301349025
 10
221.7729978777
 20
68.784759497
 10
222.3086248633
 20
68.7366763531
 10
222.9046943337
 20
68.6878663275
  0
LWPOLYLINE
  5
1EA
330
1F
100
AcDbEntity
  8
0
  6
Continuous
 62
     7
370
    25
100
AcDbPolyline
 90
       14
 70
   128
 43
0.0
 10
226.9603204925
 20
70.8940853032
 10
226.9612287256
 20
70.8940762669
 10
226.9151782762
 20
70.8657771095
 10
226.8364367857
 20
70.8444368826
 10
226.7020838826
 20
70.8178495809
 10
226.283433237
 20
70.7581547608
 10
225.7046430828
 20
70.6957180547
 10
224.9949916306
 20
70.6291536508
 10
224.2522121248
 20
70.5674521524
 10
223.5408117326
 20
70.5109332585
 10
222.8838299903
 20
70.4575724148
 10
222.2046289032
 20
70.4011673957
 10
221.4843401394
 20
70.3368457298
 10
221.463535005
 20
70.3345805477
  0
LWPOLYLINE
  5
1EB
330
1F
100
AcDbEntity
  8
0
  6
Continuous
 62
     7
370
    25
100
AcDbPolyline
 90
       35
 70
   128
 43
0.0
 10
220.3103074944
 20
69.2102224005
 10
220.305991867
 20
69.2042967242
 10
220.3778132642
 20
69.213868973
 10
220.5309800162
 20
69.2396368035
 10
220.7440821984
 20
69.2704016088
 10
221.3098662408
 20
69.3373124971
 10
222.0129314802
 20
69.4043024209
 10
222.7150014701
 20
69.4634812034
 10
223.363868105
 20
69.5166600259
 10
224.0869825163
 20
69.5743852739
 10
224.8998621115
 20
69.6403603774
 10
225.7179368295
 20
69.7154195816
 10
226.4015705511
 20
69.7891093138
 10
226.9332579678
 20
69.8692613439
 10
227.1720206128
 20
69.9236595635
 10
227.3117621735
 20
69.9715696932
 10
227.3876358952
 20
70.0134129167
 10
227.4140016751
 20
70.0315787086
 10
227.447294642
 20
70.0551843919
 10
227.4669583199
 20
70.0699544272
 10
227.4886499715
 20
70.0873625774
 10
227.5121982916
 20
70.1080075789
 10
227.5372013567
 20
70.1325293692
 10
227.618419982
 20
70.2475792716
 10
227.6604057095
 20
70.3663209756
 10
227.6717419301
 20
70.4696525986
 10
227.6620912029
 20
70.5719710859
 10
227.6143528526
 20
70.7081116849
 10
227.5064491586
 20
70.8508999434
 10
227.3722924671
 20
70.9466577229
 10
227.2338450661
 20
71.0053607601
 10
226.8861243761
 20
71.0877493252
 10
226.4040004653
 20
71.157424546
 10
226.0952930001
 20
71.1936786789
 10
225.8658052837
 20
71.2175161467
  0
LINE
  5
1EC
330
1F
100
AcDbEntity
  8
0
  6
Continuous
 62
     7
370
    25
100
AcDbLine
 10
224.4389924929
 20
66.982967697
 30
0.0
 11
224.4389924929
 21
67.8029551812
 31
0.0
  0
LINE
  5
1ED
330
1F
100
AcDbEntity
  8
0
  6
Continuous
 62
     7
370
    25
100
AcDbLine
 10
224.4389924929
 20
68.782967697
 30
0.0
 11
224.4389924929
 21
69.2977272727
 31
0.0
  0
LINE
  5
1EE
330
1F
100
AcDbEntity
  8
0
  6
Continuous
 62
     7
370
    25
100
AcDbLine
 10
223.4589924929
 20
69.5242536775
 30
0.0
 11
223.4589924929
 21
68.7042878019
 31
0.0
  0
LINE
  5
1EF
330
1F
100
AcDbEntity
  8
0
  6
Continuous
 62
     7
370
    25
100
AcDbLine
 10
223.4589924929
 20
67.7242536775
 30
0.0
 11
223.4589924929
 21
66.9042878019
 31
0.0
  0
LINE
  5
1F0
330
1F
100
AcDbEntity
  8
0
  6
Continuous
 62
     7
370
    25
100
AcDbLine
 10
220.0095817599
 20
71.467824573
 30
0.0
 11
219.5534470425
 21
71.467824573
 31
0.0
  0
LINE
  5
1F1
330
1F
100
AcDbEntity
  8
0
  6
Continuous
 62
     7
370
    25
100
AcDbLine
 10
220.8658052837
 20
71.467824573
 30
0.0
 11
220.0095817599
 21
71.467824573
 31
0.0
  0
LINE
  5
1F2
330
1F
100
AcDbEntity
  8
0
  6
Continuous
 62
     7
370
    25
100
AcDbLine
 10
219.5534470425
 20
71.467824573
 30
0.0
 11
216.8546537198
 21
71.467824573
 31
0.0
  0
LINE
  5
1F3
330
1F
100
AcDbEntity
  8
0
  6
Continuous
 62
     7
370
    25
100
AcDbLine
 10
223.8658052837
 20
80.1930048592
 30
0.0
 11
212.3614420159
 21
80.2934019165
 31
0.0
  0
LINE
  5
1F4
330
1F
100
AcDbEntity
  8
0
  6
Continuous
 62
     7
370
    25
100
AcDbLine
 10
212.3614420159
 20
49.302052629
 30
0.0
 11
223.8658052837
 21
49.4024496862
 31
0.0
  0
LINE
  5
1F5
330
1F
100
AcDbEntity
  8
0
  6
Continuous
 62
     7
370
    25
100
AcDbLine
 10
223.8658052837
 20
49.4024496862
 30
0.0
 11
225.8658052837
 21
49.4024496862
 31
0.0
  0
LINE
  5
1F6
330
1F
100
AcDbEntity
  8
0
  6
Continuous
 62
     7
370
    25
100
AcDbLine
 10
225.8658052837
 20
80.1930048592
 30
0.0
 11
223.8658052837
 21
80.1930048592
 31
0.0
  0
ARC
  5
1F7
330
1F
100
AcDbEntity
  8
0
  6
Continuous
 62
     7
370
    25
100
AcDbCircle
 10
212.3658052837
 20
48.8020716674
 30
0.0
 40
0.5000000000000853
100
AcDbArc
 50
90.4999999998
 51
179.9999999998
  0
ARC
  5
1F8
330
1F
100
AcDbEntity
  8
0
  6
Continuous
 62
     7
370
    25
100
AcDbCircle
 10
212.3658052837
 20
80.793382878
 30
0.0
 40
0.4999999999993463
100
AcDbArc
 50
179.9999999999
 51
269.5
  0
LINE
  5
1F9
330
1F
100
AcDbEntity
  8
0
  6
Continuous
 62
     7
370
    25
100
AcDbLine
 10
175.0658052837
 20
87.3371786913
 30
0.0
 11
173.3222274123
 21
87.1846353936
 31
0.0
  0
LINE
  5
1FA
330
1F
100
AcDbEntity
  8
0
  6
Continuous
 62
     7
370
    25
100
AcDbLine
 10
175.0658052837
 20
42.2582758541
 30
0.0
 11
173.3222274123
 21
42.4108191518
 31
0.0
  0
LINE
  5
1FB
330
1F
100
AcDbEntity
  8
0
  6
Continuous
 62
     7
370
    25
100
AcDbLine
 10
175.0658052837
 20
42.2582758541
 30
0.0
 11
175.0658052837
 21
56.987824573
 31
0.0
  0
LINE
  5
1FC
330
1F
100
AcDbEntity
  8
0
  6
Continuous
 62
     7
370
    25
100
AcDbLine
 10
175.0658052837
 20
57.967824573
 30
0.0
 11
175.0658052837
 21
70.7829669648
 31
0.0
  0
LINE
  5
1FD
330
1F
100
AcDbEntity
  8
0
  6
Continuous
 62
     7
370
    25
100
AcDbLine
 10
175.0658052837
 20
71.7632387623
 30
0.0
 11
175.0658052837
 21
87.3371786913
 31
0.0
  0
LINE
  5
1FE
330
1F
100
AcDbEntity
  8
0
  6
Continuous
 62
     7
370
    25
100
AcDbLine
 10
172.8658052837
 20
81.2980318824
 30
0.0
 11
172.8658052837
 21
82.1064132736
 31
0.0
  0
LINE
  5
1FF
330
1F
100
AcDbEntity
  8
0
  6
Continuous
 62
     7
370
    25
100
AcDbLine
 10
172.8658052837
 20
82.1112590615
 30
0.0
 11
172.8658052837
 21
86.6865380446
 31
0.0
  0
ARC
  5
200
330
1F
100
AcDbEntity
  8
0
  6
Continuous
 62
     7
370
    25
100
AcDbCircle
 10
173.3658052837
 20
86.6865380446
 30
0.0
 40
0.5000000000000284
100
AcDbArc
 50
95.0
 51
180.0
  0
ARC
  5
201
330
1F
100
AcDbEntity
  8
0
  6
Continuous
 62
     7
370
    25
100
AcDbCircle
 10
173.3658052837
 20
42.9089165009
 30
0.0
 40
0.5000000000000284
100
AcDbArc
 50
180.0
 51
265.0
  0
LINE
  5
202
330
1F
100
AcDbEntity
  8
0
  6
Continuous
 62
     7
370
    25
100
AcDbLine
 10
172.8658052837
 20
42.9089165009
 30
0.0
 11
172.8658052837
 21
56.987824573
 31
0.0
  0
LINE
  5
203
330
1F
100
AcDbEntity
  8
0
  6
Continuous
 62
     7
370
    25
100
AcDbLine
 10
172.8658052837
 20
57.967824573
 30
0.0
 11
172.8658052837
 21
70.8347845875
 31
0.0
  0
LINE
  5
204
330
1F
100
AcDbEntity
  8
0
  6
Continuous
 62
     7
370
    25
100
AcDbLine
 10
172.8658052837
 20
71.815056385
 30
0.0
 11
172.8658052837
 21
81.2980318824
 31
0.0
  0
LINE
  5
205
330
1F
100
AcDbEntity
  8
0
  6
Continuous
 62
     7
370
    25
100
AcDbLine
 10
175.5568742122
 20
81.2980318824
 30
0.0
 11
175.0658052837
 21
81.2980318824
 31
0.0
  0
LINE
  5
206
330
1F
100
AcDbEntity
  8
0
  6
Continuous
 62
     7
370
    25
100
AcDbLine
 10
175.5568724245
 20
48.297422663
 30
0.0
 11
175.0658052837
 21
48.297422663
 31
0.0
  0
ARC
  5
207
330
1F
100
AcDbEntity
  8
0
  6
Continuous
 62
     7
370
    25
100
AcDbCircle
 10
175.5658052837
 20
83.7506747614
 30
0.0
 40
0.5
100
AcDbArc
 50
180.0
 51
268.976315284
  0
ARC
  5
208
330
1F
100
AcDbEntity
  8
0
  6
Continuous
 62
     7
370
    25
100
AcDbCircle
 10
146.2370861018
 20
82.2741093203
 30
0.0
 40
29.3362261249578
100
AcDbArc
 50
358.0932726943
 51
1.9067273057
  0
ARC
  5
209
330
1F
100
AcDbEntity
  8
0
  6
Continuous
 62
     7
370
    25
100
AcDbCircle
 10
146.2370861018
 20
47.3213452252
 30
0.0
 40
29.33622612495982
100
AcDbArc
 50
358.0932726943
 51
1.9067273057
  0
ARC
  5
20A
330
1F
100
AcDbEntity
  8
0
  6
Continuous
 62
     7
370
    25
100
AcDbCircle
 10
175.5658052837
 20
45.844779784
 30
0.0
 40
0.5
100
AcDbArc
 50
91.023479834
 51
180.0
  0
LINE
  5
20B
330
1F
100
AcDbEntity
  8
0
  6
Continuous
 62
     7
370
    25
100
AcDbLine
 10
211.3745314869
 20
82.6255549565
 30
0.0
 11
175.5566693424
 21
83.2507580659
 31
0.0
  0
ARC
  5
20C
330
1F
100
AcDbEntity
  8
0
  6
Continuous
 62
     7
370
    25
100
AcDbCircle
 10
109.9495874398
 20
81.6257072614
 30
0.0
 40
101.429872179533
100
AcDbArc
 50
359.4351961639
 51
0.5648038361
  0
LINE
  5
20D
330
1F
100
AcDbEntity
  8
0
  6
Continuous
 62
     7
370
    25
100
AcDbLine
 10
175.5566693424
 20
81.2510626756
 30
0.0
 11
211.3745314869
 21
80.6258595662
 31
0.0
  0
LINE
  5
20E
330
1F
100
AcDbEntity
  8
0
  6
Continuous
 62
     7
370
    25
100
AcDbLine
 10
211.3745314869
 20
48.9695949792
 30
0.0
 11
175.5566693424
 21
48.3443918699
 31
0.0
  0
LINE
  5
20F
330
1F
100
AcDbEntity
  8
0
  6
Continuous
 62
     7
370
    25
100
AcDbLine
 10
211.3753127548
 20
46.988211705
 30
0.0
 11
211.3745314869
 21
46.9698995889
 31
0.0
  0
LINE
  5
210
330
1F
100
AcDbEntity
  8
0
  6
Continuous
 62
     7
370
    25
100
AcDbLine
 10
175.5566693424
 20
46.3446964796
 30
0.0
 11
211.3745314869
 21
46.9698995889
 31
0.0
  0
LINE
  5
211
330
1F
100
AcDbEntity
  8
0
  6
Continuous
 62
     7
370
    25
100
AcDbLine
 10
211.3745314869
 20
80.6258595662
 30
0.0
 11
211.8658052837
 21
80.6258595662
 31
0.0
  0
LINE
  5
212
330
1F
100
AcDbEntity
  8
0
  6
Continuous
 62
     7
370
    25
100
AcDbLine
 10
211.8658052837
 20
48.9695949792
 30
0.0
 11
211.8658052837
 21
50.6561582129
 31
0.0
  0
LINE
  5
213
330
1F
100
AcDbEntity
  8
0
  6
Continuous
 62
     7
370
    25
100
AcDbLine
 10
211.8658052837
 20
52.9403180441
 30
0.0
 11
211.8658052837
 21
56.987824573
 31
0.0
  0
LINE
  5
214
330
1F
100
AcDbEntity
  8
0
  6
Continuous
 62
     7
370
    25
100
AcDbLine
 10
211.8658052837
 20
57.967824573
 30
0.0
 11
211.8658052837
 21
69.9161994571
 31
0.0
  0
LINE
  5
215
330
1F
100
AcDbEntity
  8
0
  6
Continuous
 62
     7
370
    25
100
AcDbLine
 10
211.8658052837
 20
70.8964712546
 30
0.0
 11
211.8658052837
 21
77.0525441048
 31
0.0
  0
LINE
  5
216
330
1F
100
AcDbEntity
  8
0
  6
Continuous
 62
     7
370
    25
100
AcDbLine
 10
211.8658052837
 20
78.9434597469
 30
0.0
 11
211.8658052837
 21
78.943783964
 31
0.0
  0
LINE
  5
217
330
1F
100
AcDbEntity
  8
0
  6
Continuous
 62
     7
370
    25
100
AcDbLine
 10
211.8658052837
 20
78.9684563218
 30
0.0
 11
211.8658052837
 21
80.6258595662
 31
0.0
  0
LINE
  5
218
330
1F
100
AcDbEntity
  8
0
  6
Continuous
 62
     7
370
    25
100
AcDbLine
 10
211.3745314869
 20
48.9695949792
 30
0.0
 11
211.8658052837
 21
48.9695949792
 31
0.0
  0
LWPOLYLINE
  5
219
330
1F
100
AcDbEntity
  8
0
  6
Continuous
 62
     7
370
    25
100
AcDbPolyline
 90
        3
 70
   128
 43
0.0
 10
211.3745314869
 20
82.6255549565
 10
211.4708278743
 20
82.6144769491
 10
211.4757187806
 20
82.6134005455
  0
ARC
  5
21A
330
1F
100
AcDbEntity
  8
0
  6
Continuous
 62
     7
370
    25
100
AcDbCircle
 10
211.3658052837
 20
82.125631109
 30
0.0
 40
0.5000000000000014
100
AcDbArc
 50
0.0
 51
62.5167305977
  0
LINE
  5
21B
330
1F
100
AcDbEntity
  8
0
  6
Continuous
 62
     7
370
    25
100
AcDbLine
 10
211.8658052837
 20
80.6258595662
 30
0.0
 11
211.8658052837
 21
82.125631109
 31
0.0
  0
LINE
  5
21C
330
1F
100
AcDbEntity
  8
0
  6
Continuous
 62
     7
370
    25
100
AcDbLine
 10
211.8658052837
 20
47.4698234365
 30
0.0
 11
211.8658052837
 21
48.9695949792
 31
0.0
  0
ARC
  5
21D
330
1F
100
AcDbEntity
  8
0
  6
Continuous
 62
     7
370
    25
100
AcDbCircle
 10
219.4912469029
 20
57.9617320064
 30
0.0
 40
0.4290769099300802
100
AcDbArc
 50
0.8135839458
 51
81.6399967271
  0
LWPOLYLINE
  5
21E
330
1F
100
AcDbEntity
  8
0
  6
Continuous
 62
     7
370
    25
100
AcDbPolyline
 90
        9
 70
   128
 43
0.0
 10
217.2214872331
 20
57.967824573
 10
217.1972382339
 20
58.083764517
 10
217.1168565553
 20
58.2427319579
 10
216.9965568718
 20
58.3489506061
 10
216.8546537198
 20
58.3862496352
 10
216.7127505678
 20
58.3489506061
 10
216.5924508844
 20
58.2427319579
 10
216.5120692057
 20
58.083764517
 10
216.4878202066
 20
57.967824573
  0
LWPOLYLINE
  5
21F
330
1F
100
AcDbEntity
  8
0
  6
Continuous
 62
     7
370
    25
100
AcDbPolyline
 90
        3
 70
   128
 43
0.0
 10
219.9189149146
 20
57.9791305796
 10
219.9245919168
 20
58.083764517
 10
219.9444450363
 20
58.2422609121
  0
ELLIPSE
  5
220
330
1F
100
AcDbEntity
  8
0
  6
Continuous
 62
     7
370
    25
100
AcDbEllipse
 10
170.3212138153
 20
71.3962496352
 30
0.0
 11
0.4878169481520161
 21
-0.4878169481520018
 31
0.0
210
0.0
220
0.0
230
0.9999999999999998
 40
0.0947117629
 41
3.047162574323437
 42
3.236022732855985
  0
ELLIPSE
  5
221
330
1F
100
AcDbEntity
  8
0
  6
Continuous
 62
     7
370
    25
100
AcDbEllipse
 10
170.3212138153
 20
57.477824573
 30
0.0
 11
0.4878169481520445
 21
0.487816948152016
 31
0.0
210
0.0
220
0.0
230
1.0
 40
0.0947117629
 41
3.04716257432431
 42
3.236022732856492
  0
ELLIPSE
  5
222
330
1F
100
AcDbEntity
  8
0
  6
Continuous
 62
     7
370
    25
100
AcDbEllipse
 10
170.3212138153
 20
57.477824573
 30
0.0
 11
0.4878169481520445
 21
0.487816948152016
 31
0.0
210
0.0
220
0.0
230
1.0
 40
0.0947117629
 41
3.236022732856492
 42
6.188755227914092
  0
LWPOLYLINE
  5
223
330
1F
100
AcDbEntity
  8
0
  6
Continuous
 62
     7
370
    25
100
AcDbPolyline
 90
       10
 70
   128
 43
0.0
 10
224.2576194722
 20
56.987824573
 10
224.2928234179
 20
57.0251236021
 10
224.3226678819
 20
57.1313422502
 10
224.3426093153
 20
57.2903096912
 10
224.3496118154
 20
57.477824573
 10
224.3426093153
 20
57.6653394549
 10
224.3226678819
 20
57.8243068958
 10
224.2928234179
 20
57.930525544
 10
224.2576194722
 20
57.967824573
 10
224.2576194722
 20
57.967824573
  0
ELLIPSE
  5
224
330
1F
100
AcDbEntity
  8
0
  6
Continuous
 62
     7
370
    25
100
AcDbEllipse
 10
170.3212138153
 20
71.3848544321
 30
0.0
 11
-0.4869287221598881
 21
0.49853262766932
 31
0.0
210
0.0
220
0.0
230
0.9999999999999999
 40
0.1098746248
 41
6.176277303349736
 42
6.395207382831589
  0
ELLIPSE
  5
225
330
1F
100
AcDbEntity
  8
0
  6
Continuous
 62
     7
370
    25
100
AcDbEllipse
 10
170.3212138153
 20
71.3848544321
 30
0.0
 11
-0.4869287221598881
 21
0.49853262766932
 31
0.0
210
0.0
220
0.0
230
0.9999999999999999
 40
0.1098746248
 41
3.253614729241793
 42
6.176277303349736
  0
LWPOLYLINE
  5
226
330
1F
100
AcDbEntity
  8
0
  6
Continuous
 62
     7
370
    25
100
AcDbPolyline
 90
        3
 70
   128
 43
0.0
 10
221.1026943549
 20
70.1912811927
 10
221.3141534579
 20
70.3046137075
 10
221.4645177425
 20
70.327701016
  0
ARC
  5
227
330
1F
100
AcDbEntity
  8
0
  6
Continuous
 62
     7
370
    25
100
AcDbCircle
 10
219.759428474
 20
71.2919298865
 30
0.0
 40
1.73660322872999
100
AcDbArc
 50
295.1353486172
 51
320.669405568
  0
LWPOLYLINE
  5
228
330
1F
100
AcDbEntity
  8
0
  6
Continuous
 62
     7
370
    25
100
AcDbPolyline
 90
        8
 70
   128
 43
0.0
 10
220.0857254505
 20
70.7028636536
 10
220.094571603
 20
70.7903096912
 10
220.1015741031
 20
70.977824573
 10
220.094571603
 20
71.1653394549
 10
220.0746301696
 20
71.3243068958
 10
220.0447857056
 20
71.430525544
 10
220.0095817599
 20
71.467824573
 10
220.0095280183
 20
71.4678244894
  0
LWPOLYLINE
  5
229
330
1F
100
AcDbEntity
  8
0
  6
Continuous
 62
     7
370
    25
100
AcDbPolyline
 90
        8
 70
   128
 43
0.0
 10
219.2367892569
 20
70.7228590424
 10
219.2108625284
 20
70.7903096912
 10
219.1826362365
 20
70.977824573
 10
219.2108625284
 20
71.1653394549
 10
219.2912442071
 20
71.3243068958
 10
219.4115438905
 20
71.430525544
 10
219.5534470425
 20
71.467824573
 10
219.5536375467
 20
71.4678245084
  0
LWPOLYLINE
  5
22A
330
1F
100
AcDbEntity
  8
0
  6
Continuous
 62
     7
370
    25
100
AcDbPolyline
 90
        7
 70
   128
 43
0.0
 10
216.5131138866
 20
70.7870110346
 10
216.5120692057
 20
70.7903096912
 10
216.4838429138
 20
70.977824573
 10
216.5120692057
 20
71.1653394549
 10
216.5924508844
 20
71.3243068958
 10
216.7127505678
 20
71.430525544
 10
216.8546211718
 20
71.4678245711
  0
ARC
  5
22B
330
1F
100
AcDbEntity
  8
0
  6
Continuous
 62
     7
370
    25
100
AcDbCircle
 10
209.4387744305
 20
80.2904569901
 30
0.0
 40
2.990808150247356
100
AcDbArc
 50
324.2445308105
 51
347.7461026179
  0
LWPOLYLINE
  5
22C
330
1F
100
AcDbEntity
  8
0
  6
Continuous
 62
     7
370
    25
100
AcDbPolyline
 90
        5
 70
   128
 43
0.0
 10
212.3614420159
 20
75.3358516829
 10
216.3056045413
 20
75.3616535013
 10
218.8401375689
 20
75.3788760532
 10
221.3603488281
 20
75.3965068295
 10
223.8658052837
 20
75.4145405741
  0
LINE
  5
22D
330
1F
100
AcDbEntity
  8
0
  6
Continuous
 62
     7
370
    25
100
AcDbLine
 10
212.3614420159
 20
75.9397790741
 30
0.0
 11
212.3614420159
 21
75.3358516829
 31
0.0
  0
ARC
  5
22E
330
1F
100
AcDbEntity
  8
0
  6
Continuous
 62
     7
370
    25
100
AcDbCircle
 10
209.6552500747
 20
75.4011711704
 30
0.0
 40
2.759270428321418
100
AcDbArc
 50
11.2563716188
 51
36.7603949285
  0
LINE
  5
22F
330
1F
100
AcDbEntity
  8
0
  6
Continuous
 62
     7
370
    25
100
AcDbLine
 10
211.8658052837
 20
78.5427479332
 30
0.0
 11
211.8658052837
 21
77.0525441048
 31
0.0
  0
ARC
  5
230
330
1F
100
AcDbEntity
  8
0
  6
Continuous
 62
     7
370
    25
100
AcDbCircle
 10
209.4133653326
 20
54.3020188584
 30
0.0
 40
3.018098060784897
100
AcDbArc
 50
324.349269451
 51
347.6339917853
  0
LINE
  5
231
330
1F
100
AcDbEntity
  8
0
  6
Continuous
 62
     7
370
    25
100
AcDbLine
 10
212.3614420159
 20
54.2596028625
 30
0.0
 11
212.3614420159
 21
53.6556754713
 31
0.0
  0
LWPOLYLINE
  5
232
330
1F
100
AcDbEntity
  8
0
  6
Continuous
 62
     7
370
    25
100
AcDbPolyline
 90
        5
 70
   128
 43
0.0
 10
223.8658052837
 20
54.1809139713
 10
219.9874896549
 20
54.2086147963
 10
217.4594126774
 20
54.2260235486
 10
214.9172511876
 20
54.2430212604
 10
212.3614420159
 20
54.2596028625
  0
ARC
  5
233
330
1F
100
AcDbEntity
  8
0
  6
Continuous
 62
     7
370
    25
100
AcDbCircle
 10
209.6888547214
 20
49.4163638561
 30
0.0
 40
2.723359384554665
100
AcDbArc
 50
11.0808916969
 51
36.928510355
  0
LINE
  5
234
330
1F
100
AcDbEntity
  8
0
  6
Continuous
 62
     7
370
    25
100
AcDbLine
 10
211.8658052837
 20
52.5429098176
 30
0.0
 11
211.8658052837
 21
51.0527058167
 31
0.0
  0
ARC
  5
235
330
1F
100
AcDbEntity
  8
0
  6
Continuous
 62
     7
370
    25
100
AcDbCircle
 10
212.3089419873
 20
80.1018654797
 30
0.0
 40
0.449268045424916
100
AcDbArc
 50
189.4767142618
 51
276.7107343668
  0
LINE
  5
236
330
1F
100
AcDbEntity
  8
0
  6
Continuous
 62
     7
370
    25
100
AcDbLine
 10
211.8658052837
 20
79.9224310589
 30
0.0
 11
211.8658052837
 21
78.5430223311
 31
0.0
  0
ARC
  5
237
330
1F
100
AcDbEntity
  8
0
  6
Continuous
 62
     7
370
    25
100
AcDbCircle
 10
212.3089419873
 20
49.4935890657
 30
0.0
 40
0.4492680454249735
100
AcDbArc
 50
83.2892656332
 51
170.5232857382
  0
LINE
  5
238
330
1F
100
AcDbEntity
  8
0
  6
Continuous
 62
     7
370
    25
100
AcDbLine
 10
211.8658052837
 20
51.0524322129
 30
0.0
 11
211.8658052837
 21
49.5675595907
 31
0.0
  0
ARC
  5
239
330
1F
100
AcDbEntity
  8
0
  6
Continuous
 62
     7
370
    25
100
AcDbCircle
 10
212.3089419873
 20
54.1018654797
 30
0.0
 40
0.449268045424923
100
AcDbArc
 50
189.4767142618
 51
276.7107343668
  0
LINE
  5
23A
330
1F
100
AcDbEntity
  8
0
  6
Continuous
 62
     7
370
    25
100
AcDbLine
 10
211.8658052837
 20
54.0278949548
 30
0.0
 11
211.8658052828
 21
52.5430011768
 31
0.0
  0
ARC
  5
23B
330
1F
100
AcDbEntity
  8
0
  6
Continuous
 62
     7
370
    25
100
AcDbCircle
 10
212.3089419873
 20
75.4935890657
 30
0.0
 40
0.4492680454248753
100
AcDbArc
 50
83.2892656332
 51
170.5232857382
  0
LINE
  5
23C
330
1F
100
AcDbEntity
  8
0
  6
Continuous
 62
     7
370
    25
100
AcDbLine
 10
211.8658052837
 20
77.0524533612
 30
0.0
 11
211.8658052837
 21
75.5675595907
 31
0.0
  0
LINE
  5
23D
330
1F
100
AcDbEntity
  8
0
  6
Continuous
 62
     7
370
    25
100
AcDbLine
 10
225.8658052837
 20
53.7350520432
 30
0.0
 11
223.8658052837
 21
53.7350520432
 31
0.0
  0
LINE
  5
23E
330
1F
100
AcDbEntity
  8
0
  6
Continuous
 62
     7
370
    25
100
AcDbLine
 10
225.8658052837
 20
53.7350520432
 30
0.0
 11
225.8658052837
 21
49.4024496862
 31
0.0
  0
LINE
  5
23F
330
1F
100
AcDbEntity
  8
0
  6
Continuous
 62
     7
370
    25
100
AcDbLine
 10
225.8658052837
 20
80.1930048592
 30
0.0
 11
225.8658052837
 21
75.8604025022
 31
0.0
  0
LINE
  5
240
330
1F
100
AcDbEntity
  8
0
  6
Continuous
 62
     7
370
    25
100
AcDbLine
 10
225.8658052837
 20
75.8604025022
 30
0.0
 11
223.8658052837
 21
75.8604005543
 31
0.0
  0
ARC
  5
241
330
1F
100
AcDbEntity
  8
0
  6
Continuous
 62
     7
370
    25
100
AcDbCircle
 10
212.3623735113
 20
54.7561816456
 30
0.0
 40
0.4965796567316481
100
AcDbArc
 50
180.3887314504
 51
269.8925232124
  0
ARC
  5
242
330
1F
100
AcDbEntity
  8
0
  6
Continuous
 62
     7
370
    25
100
AcDbCircle
 10
212.3623735113
 20
74.8392728999
 30
0.0
 40
0.4965796567317548
100
AcDbArc
 50
90.1074767876
 51
179.6112685496
  0
LINE
  5
243
330
1F
100
AcDbEntity
  8
0
  6
Continuous
 62
     7
370
    25
100
AcDbLine
 10
225.8658052837
 20
54.1394500036
 30
0.0
 11
223.8658052837
 21
54.1394500036
 31
0.0
  0
LINE
  5
244
330
1F
100
AcDbEntity
  8
0
  6
Continuous
 62
     7
370
    25
100
AcDbLine
 10
223.8658052837
 20
54.1394500036
 30
0.0
 11
223.8658052837
 21
53.7350520432
 31
0.0
  0
LINE
  5
245
330
1F
100
AcDbEntity
  8
0
  6
Continuous
 62
     7
370
    25
100
AcDbLine
 10
225.8658052837
 20
54.1394500036
 30
0.0
 11
225.8658052837
 21
53.7350520432
 31
0.0
  0
LINE
  5
246
330
1F
100
AcDbEntity
  8
0
  6
Continuous
 62
     7
370
    25
100
AcDbLine
 10
225.8658052837
 20
75.4560045418
 30
0.0
 11
223.8658052837
 21
75.4560045418
 31
0.0
  0
LINE
  5
247
330
1F
100
AcDbEntity
  8
0
  6
Continuous
 62
     7
370
    25
100
AcDbLine
 10
223.8658052837
 20
75.8604005543
 30
0.0
 11
223.8658052837
 21
75.4560045418
 31
0.0
  0
LINE
  5
248
330
1F
100
AcDbEntity
  8
0
  6
Continuous
 62
     7
370
    25
100
AcDbLine
 10
225.8658052837
 20
75.8604025022
 30
0.0
 11
225.8658052837
 21
75.4560045418
 31
0.0
  0
LINE
  5
249
330
1F
100
AcDbEntity
  8
0
  6
Continuous
 62
     7
370
    25
100
AcDbLine
 10
225.8658052837
 20
60.2977272727
 30
0.0
 11
223.8658052837
 21
60.2977272727
 31
0.0
  0
LINE
  5
24A
330
1F
100
AcDbEntity
  8
0
  6
Continuous
 62
     7
370
    25
100
AcDbLine
 10
223.8658052837
 20
60.2977272727
 30
0.0
 11
223.8658052837
 21
59.7367531431
 31
0.0
  0
LINE
  5
24B
330
1F
100
AcDbEntity
  8
0
  6
Continuous
 62
     7
370
    25
100
AcDbLine
 10
223.8658052837
 20
58.7567289938
 30
0.0
 11
223.8658052837
 21
57.967824573
 31
0.0
  0
LINE
  5
24C
330
1F
100
AcDbEntity
  8
0
  6
Continuous
 62
     7
370
    25
100
AcDbLine
 10
223.8658052837
 20
56.987824573
 30
0.0
 11
223.8658052837
 21
54.1394500036
 31
0.0
  0
LINE
  5
24D
330
1F
100
AcDbEntity
  8
0
  6
Continuous
 62
     7
370
    25
100
AcDbLine
 10
225.8658052837
 20
60.2977272727
 30
0.0
 11
225.8658052837
 21
59.9131033487
 31
0.0
  0
LINE
  5
24E
330
1F
100
AcDbEntity
  8
0
  6
Continuous
 62
     7
370
    25
100
AcDbLine
 10
225.8658052837
 20
58.9313585068
 30
0.0
 11
225.8658052837
 21
58.1131033487
 31
0.0
  0
LINE
  5
24F
330
1F
100
AcDbEntity
  8
0
  6
Continuous
 62
     7
370
    25
100
AcDbLine
 10
225.8658052837
 20
57.1313585068
 30
0.0
 11
225.8658052837
 21
54.1394500036
 31
0.0
  0
LINE
  5
250
330
1F
100
AcDbEntity
  8
0
  6
Continuous
 62
     7
370
    25
100
AcDbLine
 10
225.8658052837
 20
69.2977272727
 30
0.0
 11
223.8658052837
 21
69.2977272727
 31
0.0
  0
LINE
  5
251
330
1F
100
AcDbEntity
  8
0
  6
Continuous
 62
     7
370
    25
100
AcDbLine
 10
223.8658052837
 20
75.4560045418
 30
0.0
 11
223.8658052837
 21
70.5367531431
 31
0.0
  0
LINE
  5
252
330
1F
100
AcDbEntity
  8
0
  6
Continuous
 62
     7
370
    25
100
AcDbLine
 10
223.8658052837
 20
69.5567289938
 30
0.0
 11
223.8658052837
 21
69.2977272727
 31
0.0
  0
LINE
  5
253
330
1F
100
AcDbEntity
  8
0
  6
Continuous
 62
     7
370
    25
100
AcDbLine
 10
225.8658052837
 20
75.4560045418
 30
0.0
 11
225.8658052837
 21
70.7131033487
 31
0.0
  0
LINE
  5
254
330
1F
100
AcDbEntity
  8
0
  6
Continuous
 62
     7
370
    25
100
AcDbLine
 10
225.8658052837
 20
69.7313585068
 30
0.0
 11
225.8658052837
 21
69.2977272727
 31
0.0
  0
LINE
  5
255
330
1F
100
AcDbEntity
  8
0
  6
Continuous
 62
     7
370
    25
100
AcDbLine
 10
212.3570790804
 20
54.7528125554
 30
0.0
 11
211.8658052837
 21
54.7528125554
 31
0.0
  0
ARC
  5
256
330
1F
100
AcDbEntity
  8
0
  6
Continuous
 62
     7
370
    25
100
AcDbCircle
 10
222.4178612154
 20
54.595186142
 30
0.0
 40
10.06201685809918
100
AcDbArc
 50
179.1023968863
 51
181.9112541923
  0
LINE
  5
257
330
1F
100
AcDbEntity
  8
0
  6
Continuous
 62
     7
370
    25
100
AcDbLine
 10
211.8658052837
 20
74.8426419901
 30
0.0
 11
212.3570790804
 21
74.8426419901
 31
0.0
  0
ARC
  5
258
330
1F
100
AcDbEntity
  8
0
  6
Continuous
 62
     7
370
    25
100
AcDbCircle
 10
222.4178612152
 20
75.0002684035
 30
0.0
 40
10.0620168579395
100
AcDbArc
 50
178.0887458077
 51
180.8976031137
  0
LWPOLYLINE
  5
259
330
1F
100
AcDbEntity
  8
0
  6
Continuous
 62
     7
370
    25
100
AcDbPolyline
 90
        5
 70
   128
 43
0.0
 10
223.8658052837
 20
74.9171140056
 10
219.9860327237
 20
74.8906314843
 10
217.4569980718
 20
74.8741313166
 10
214.9138677464
 20
74.8581339016
 10
212.3570790804
 20
74.8426419901
  0
LWPOLYLINE
  5
25A
330
1F
100
AcDbEntity
  8
0
  6
Continuous
 62
     7
370
    25
100
AcDbPolyline
 90
        5
 70
   128
 43
0.0
 10
212.3570790804
 20
54.7528125554
 10
216.3027509094
 20
54.7286572732
 10
218.8382467467
 20
54.7123852829
 10
221.359409382
 20
54.6956120768
 10
223.8658052793
 20
54.6783405397
  0
LINE
  5
25B
330
1F
100
AcDbEntity
  8
0
  6
Continuous
 62
     7
370
    25
100
AcDbLine
 10
215.8658052837
 20
57.967824573
 30
0.0
 11
215.8658052837
 21
69.8219855975
 31
0.0
  0
LINE
  5
25C
330
1F
100
AcDbEntity
  8
0
  6
Continuous
 62
     7
370
    25
100
AcDbLine
 10
215.8658052837
 20
70.802257395
 30
0.0
 11
215.8658052837
 21
72.2977272727
 31
0.0
  0
LINE
  5
25D
330
1F
100
AcDbEntity
  8
0
  6
Continuous
 62
     7
370
    25
100
AcDbLine
 10
220.8658052837
 20
57.967824573
 30
0.0
 11
220.8658052837
 21
58.4847968536
 31
0.0
  0
LINE
  5
25E
330
1F
100
AcDbEntity
  8
0
  6
Continuous
 62
     7
370
    25
100
AcDbLine
 10
220.8658052837
 20
59.4695020632
 30
0.0
 11
220.8658052837
 21
60.2977272727
 31
0.0
  0
LINE
  5
25F
330
1F
100
AcDbEntity
  8
0
  6
Continuous
 62
     7
370
    25
100
AcDbLine
 10
220.8658052837
 20
70.6844900706
 30
0.0
 11
220.8658052837
 21
72.2977272727
 31
0.0
  0
LINE
  5
260
330
1F
100
AcDbEntity
  8
0
  6
Continuous
 62
     7
370
    25
100
AcDbLine
 10
220.8658052837
 20
72.2977272727
 30
0.0
 11
215.8658052837
 21
72.2977272727
 31
0.0
  0
LINE
  5
261
330
1F
100
AcDbEntity
  8
0
  6
Continuous
 62
     7
370
    25
100
AcDbLine
 10
223.4589924929
 20
69.2977272727
 30
0.0
 11
220.9751421198
 21
69.2977272727
 31
0.0
  0
LINE
  5
262
330
1F
100
AcDbEntity
  8
0
  6
Continuous
 62
     7
370
    25
100
AcDbLine
 10
220.9751421198
 20
60.2977272727
 30
0.0
 11
223.8658052837
 21
60.2977272727
 31
0.0
  0
LINE
  5
263
330
1F
100
AcDbEntity
  8
0
  6
Continuous
 62
     7
370
    25
100
AcDbLine
 10
173.3222274123
 20
42.4108191518
 30
0.0
 11
173.3222274123
 21
56.987824573
 31
0.0
  0
LINE
  5
264
330
1F
100
AcDbEntity
  8
0
  6
Continuous
 62
     7
370
    25
100
AcDbLine
 10
173.3222274123
 20
57.967824573
 30
0.0
 11
173.3222274123
 21
70.8240342649
 31
0.0
  0
LINE
  5
265
330
1F
100
AcDbEntity
  8
0
  6
Continuous
 62
     7
370
    25
100
AcDbLine
 10
173.3222274123
 20
71.8043060624
 30
0.0
 11
173.3222274123
 21
87.1846353936
 31
0.0
  0
LINE
  5
266
330
1F
100
AcDbEntity
  8
0
  6
Continuous
 62
     7
370
    25
100
AcDbLine
 10
175.5570790804
 20
48.3211121901
 30
0.0
 11
175.5570790804
 21
56.987824573
 31
0.0
  0
LINE
  5
267
330
1F
100
AcDbEntity
  8
0
  6
Continuous
 62
     7
370
    25
100
AcDbLine
 10
175.5570790804
 20
57.967824573
 30
0.0
 11
175.5570790804
 21
70.7713957646
 31
0.0
  0
LINE
  5
268
330
1F
100
AcDbEntity
  8
0
  6
Continuous
 62
     7
370
    25
100
AcDbLine
 10
175.5570790804
 20
71.7516675622
 30
0.0
 11
175.5570790804
 21
81.2628031893
 31
0.0
  0
LINE
  5
269
330
1F
100
AcDbEntity
  8
0
  6
Continuous
 62
     7
370
    25
100
AcDbLine
 10
211.3745314869
 20
80.6258595662
 30
0.0
 11
211.3745314869
 21
70.9080424547
 31
0.0
  0
LINE
  5
26A
330
1F
100
AcDbEntity
  8
0
  6
Continuous
 62
     7
370
    25
100
AcDbLine
 10
211.3745314869
 20
69.9277706572
 30
0.0
 11
211.3745314869
 21
57.967824573
 31
0.0
  0
LINE
  5
26B
330
1F
100
AcDbEntity
  8
0
  6
Continuous
 62
     7
370
    25
100
AcDbLine
 10
211.3745314869
 20
56.987824573
 30
0.0
 11
211.3745314869
 21
48.9695949792
 31
0.0
  0
ARC
  5
26C
330
1F
100
AcDbEntity
  8
0
  6
Continuous
 62
     7
370
    25
100
AcDbCircle
 10
98.4400354715
 20
47.9343726306
 30
0.0
 40
112.9392406365808
100
AcDbArc
 50
359.5199926826
 51
0.5251912596
  0
LINE
  5
26D
330
1F
100
AcDbEntity
  8
0
  6
Continuous
 62
     7
370
    25
100
AcDbLine
 10
212.3614420159
 20
80.2934019165
 30
0.0
 11
212.3614420159
 21
79.6556754713
 31
0.0
  0
LINE
  5
26E
330
1F
100
AcDbEntity
  8
0
  6
Continuous
 62
     7
370
    25
100
AcDbLine
 10
223.8658052837
 20
80.1930048592
 30
0.0
 11
223.8658052837
 21
75.8604005543
 31
0.0
  0
LINE
  5
26F
330
1F
100
AcDbEntity
  8
0
  6
Continuous
 62
     7
370
    25
100
AcDbLine
 10
223.8658052837
 20
53.7350520432
 30
0.0
 11
223.8658052837
 21
49.4024496862
 31
0.0
  0
LINE
  5
270
330
1F
100
AcDbEntity
  8
0
  6
Continuous
 62
     7
370
    25
100
AcDbLine
 10
212.3614420159
 20
49.9397790741
 30
0.0
 11
212.3614420159
 21
49.302052629
 31
0.0
  0
LINE
  5
271
330
1F
100
AcDbEntity
  8
0
  6
Continuous
 62
     7
370
    25
100
AcDbLine
 10
212.3570790804
 20
74.8426419901
 30
0.0
 11
212.3570790804
 21
70.8849000544
 31
0.0
  0
LINE
  5
272
330
1F
100
AcDbEntity
  8
0
  6
Continuous
 62
     7
370
    25
100
AcDbLine
 10
212.3570790804
 20
69.9046282569
 30
0.0
 11
212.3570790804
 21
57.967824573
 31
0.0
  0
LINE
  5
273
330
1F
100
AcDbEntity
  8
0
  6
Continuous
 62
     7
370
    25
100
AcDbLine
 10
212.3570790804
 20
56.987824573
 30
0.0
 11
212.3570790804
 21
54.7528125554
 31
0.0
  0
ENDSEC
  0
SECTION
  2
OBJECTS
  0
DICTIONARY
  5
C
330
0
100
AcDbDictionary
281
     1
  3
ACAD_GROUP
350
D
  3
ACAD_LAYOUT
350
1A
  3
ACAD_MLINESTYLE
350
17
  3
ACAD_PLOTSETTINGS
350
19
  3
ACAD_PLOTSTYLENAME
350
E
  3
ACAD_SCALELIST
350
47
  3
DWGPROPS
350
274
  0
DICTIONARY
  5
D
102
{ACAD_REACTORS
330
C
102
}
330
C
100
AcDbDictionary
281
     1
  0
DICTIONARY
  5
1A
102
{ACAD_REACTORS
330
C
102
}
330
C
100
AcDbDictionary
281
     1
  3
Layout1
350
1E
  3
Layout2
350
26
  3
Model
350
22
  0
DICTIONARY
  5
17
102
{ACAD_REACTORS
330
C
102
}
330
C
100
AcDbDictionary
281
     1
  3
Standard
350
18
  0
DICTIONARY
  5
19
102
{ACAD_REACTORS
330
C
102
}
330
C
100
AcDbDictionary
281
     1
  0
ACDBDICTIONARYWDFLT
  5
E
102
{ACAD_REACTORS
330
C
102
}
330
C
100
AcDbDictionary
281
     1
  3
Normal
350
F
100
AcDbDictionaryWithDefault
340
F
  0
DICTIONARY
  5
47
102
{ACAD_REACTORS
330
C
102
}
330
C
100
AcDbDictionary
281
     1
  3
A0
350
48
  3
A1
350
49
  3
A2
350
4A
  3
A3
350
4B
  3
A4
350
4C
  3
A5
350
4D
  3
A6
350
4E
  3
A7
350
4F
  3
A8
350
50
  3
A9
350
51
  3
B0
350
52
  3
B1
350
53
  3
B2
350
54
  3
B3
350
55
  3
B4
350
56
  3
B5
350
57
  3
B6
350
58
  0
XRECORD
  5
274
102
{ACAD_REACTORS
330
C
102
}
330
C
100
AcDbXrecord
280
     1
  1
DWGPROPS COOKIE
  2

  3

  4

  6

  7

  8
SKriemadi
  9

300
=
301
=
302
=
303
=
304
=
305
=
306
=
307
=
308
=
309
=
 40
0.0
 41
2460088.417830752
 42
2460088.417831007
  1

 90
        0
  0
LAYOUT
  5
1E
102
{ACAD_REACTORS
330
1A
102
}
330
1A
100
AcDbPlotSettings
  1

  2
none_device
  4

  6

 40
0.0
 41
0.0
 42
0.0
 43
0.0
 44
0.0
 45
0.0
 46
0.0
 47
0.0
 48
0.0
 49
0.0
140
0.0
141
0.0
142
1.0
143
1.0
 70
   688
 72
     1
 73
     0
 74
     5
  7

 75
    16
147
1.0
148
0.0
149
0.0
100
AcDbLayout
  1
Layout1
 70
     1
 71
     1
 10
0.0
 20
0.0
 11
420.0
 21
297.0
 12
0.0
 22
0.0
 32
0.0
 14
1.0000000000E+20
 24
1.0000000000E+20
 34
1.0000000000E+20
 15
-1.0000000000E+20
 25
-1.0000000000E+20
 35
-1.0000000000E+20
146
0.0
 13
0.0
 23
0.0
 33
0.0
 16
1.0
 26
0.0
 36
0.0
 17
0.0
 27
1.0
 37
0.0
 76
     0
330
1B
  0
LAYOUT
  5
26
102
{ACAD_REACTORS
330
1A
102
}
330
1A
100
AcDbPlotSettings
  1

  2
none_device
  4

  6

 40
0.0
 41
0.0
 42
0.0
 43
0.0
 44
0.0
 45
0.0
 46
0.0
 47
0.0
 48
0.0
 49
0.0
140
0.0
141
0.0
142
1.0
143
1.0
 70
   688
 72
     1
 73
     0
 74
     5
  7

 75
    16
147
1.0
148
0.0
149
0.0
100
AcDbLayout
  1
Layout2
 70
     1
 71
     2
 10
0.0
 20
0.0
 11
0.0
 21
0.0
 12
0.0
 22
0.0
 32
0.0
 14
0.0
 24
0.0
 34
0.0
 15
0.0
 25
0.0
 35
0.0
146
0.0
 13
0.0
 23
0.0
 33
0.0
 16
1.0
 26
0.0
 36
0.0
 17
0.0
 27
1.0
 37
0.0
 76
     0
330
23
  0
LAYOUT
  5
22
102
{ACAD_REACTORS
330
1A
102
}
330
1A
100
AcDbPlotSettings
  1

  2
none_device
  4
Letter_(8.50_x_11.00_Inches)
  6

 40
6.35
 41
6.35
 42
6.35000508
 43
6.35000508
 44
215.9
 45
279.4
 46
0.0
 47
0.0
 48
0.0
 49
0.0
140
0.0
141
0.0
142
1.0
143
1.0
 70
  1712
 72
     1
 73
     0
 74
     0
  7

 75
     0
147
1.0
148
0.0
149
0.0
100
AcDbLayout
  1
Model
 70
     1
 71
     0
 10
0.0
 20
0.0
 11
297.0
 21
210.0
 12
0.0
 22
0.0
 32
0.0
 14
0.0
 24
0.0
 34
0.0
 15
297.0
 25
210.0
 35
0.0
146
0.0
 13
0.0
 23
0.0
 33
0.0
 16
1.0
 26
0.0
 36
0.0
 17
0.0
 27
1.0
 37
0.0
 76
     0
330
1F
331
29
  0
MLINESTYLE
  5
18
102
{ACAD_REACTORS
330
17
102
}
330
17
100
AcDbMlineStyle
  2
Standard
 70
     0
  3

 62
   256
 51
90.0
 52
90.0
 71
     2
 49
0.5
 62
   256
  6
BYLAYER
 49
-0.5
 62
   256
  6
BYLAYER
  0
ACDBPLACEHOLDER
  5
F
102
{ACAD_REACTORS
330
E
102
}
330
E
  0
SCALE
  5
48
102
{ACAD_REACTORS
330
47
102
}
330
47
100
AcDbScale
 70
     0
300
1:1
140
1.0
141
1.0
290
     1
  0
SCALE
  5
49
102
{ACAD_REACTORS
330
47
102
}
330
47
100
AcDbScale
 70
     0
300
1:2
140
1.0
141
2.0
290
     0
  0
SCALE
  5
4A
102
{ACAD_REACTORS
330
47
102
}
330
47
100
AcDbScale
 70
     0
300
1:4
140
1.0
141
4.0
290
     0
  0
SCALE
  5
4B
102
{ACAD_REACTORS
330
47
102
}
330
47
100
AcDbScale
 70
     0
300
1:5
140
1.0
141
5.0
290
     0
  0
SCALE
  5
4C
102
{ACAD_REACTORS
330
47
102
}
330
47
100
AcDbScale
 70
     0
300
1:8
140
1.0
141
8.0
290
     0
  0
SCALE
  5
4D
102
{ACAD_REACTORS
330
47
102
}
330
47
100
AcDbScale
 70
     0
300
1:10
140
1.0
141
10.0
290
     0
  0
SCALE
  5
4E
102
{ACAD_REACTORS
330
47
102
}
330
47
100
AcDbScale
 70
     0
300
1:16
140
1.0
141
16.0
290
     0
  0
SCALE
  5
4F
102
{ACAD_REACTORS
330
47
102
}
330
47
100
AcDbScale
 70
     0
300
1:20
140
1.0
141
20.0
290
     0
  0
SCALE
  5
50
102
{ACAD_REACTORS
330
47
102
}
330
47
100
AcDbScale
 70
     0
300
1:30
140
1.0
141
30.0
290
     0
  0
SCALE
  5
51
102
{ACAD_REACTORS
330
47
102
}
330
47
100
AcDbScale
 70
     0
300
1:40
140
1.0
141
40.0
290
     0
  0
SCALE
  5
52
102
{ACAD_REACTORS
330
47
102
}
330
47
100
AcDbScale
 70
     0
300
1:50
140
1.0
141
50.0
290
     0
  0
SCALE
  5
53
102
{ACAD_REACTORS
330
47
102
}
330
47
100
AcDbScale
 70
     0
300
1:100
140
1.0
141
100.0
290
     0
  0
SCALE
  5
54
102
{ACAD_REACTORS
330
47
102
}
330
47
100
AcDbScale
 70
     0
300
2:1
140
2.0
141
1.0
290
     0
  0
SCALE
  5
55
102
{ACAD_REACTORS
330
47
102
}
330
47
100
AcDbScale
 70
     0
300
4:1
140
4.0
141
1.0
290
     0
  0
SCALE
  5
56
102
{ACAD_REACTORS
330
47
102
}
330
47
100
AcDbScale
 70
     0
300
8:1
140
8.0
141
1.0
290
     0
  0
SCALE
  5
57
102
{ACAD_REACTORS
330
47
102
}
330
47
100
AcDbScale
 70
     0
300
10:1
140
10.0
141
1.0
290
     0
  0
SCALE
  5
58
102
{ACAD_REACTORS
330
47
102
}
330
47
100
AcDbScale
 70
     0
300
100:1
140
100.0
141
1.0
290
     0
  0
ENDSEC
  0
EOF
