  0
SECTION
  2
HEADER
  9
$ACADVER
  1
AC1015
  9
$ACADMAINTVER
 70
     6
  9
$DWGCODEPAGE
  3
ANSI_1253
  9
$INSBASE
 10
0.0
 20
0.0
 30
0.0
  9
$EXTMIN
 10
0.0
 20
0.0
 30
0.0
  9
$EXTMAX
 10
297.0
 20
210.0
 30
0.0
  9
$LIMMIN
 10
0.0
 20
0.0
  9
$LIMMAX
 10
297.0
 20
210.0
  9
$ORTHOMODE
 70
     0
  9
$REGENMODE
 70
     1
  9
$FILLMODE
 70
     1
  9
$QTEXTMODE
 70
     0
  9
$MIRRTEXT
 70
     1
  9
$LTSCALE
 40
1.0
  9
$ATTMODE
 70
     1
  9
$TEXTSIZE
 40
3.0
  9
$TRACEWID
 40
1.0
  9
$TEXTSTYLE
  7
Standard
  9
$CLAYER
  8
0
  9
$CELTYPE
  6
ByLayer
  9
$CECOLOR
 62
   256
  9
$CELTSCALE
 40
1.0
  9
$DISPSILH
 70
     0
  9
$DIMSCALE
 40
1.0
  9
$DIMASZ
 40
3.302
  9
$DIMEXO
 40
0.5
  9
$DIMDLI
 40
3.75
  9
$DIMRND
 40
0.0
  9
$DIMDLE
 40
0.0
  9
$DIMEXE
 40
0.5
  9
$DIMTP
 40
0.0
  9
$DIMTM
 40
0.0
  9
$DIMTXT
 40
3.0
  9
$DIMCEN
 40
2.5
  9
$DIMTSZ
 40
0.0
  9
$DIMTOL
 70
     0
  9
$DIMLIM
 70
     0
  9
$DIMTIH
 70
     1
  9
$DIMTOH
 70
     1
  9
$DIMSE1
 70
     0
  9
$DIMSE2
 70
     0
  9
$DIMTAD
 70
     1
  9
$DIMZIN
 70
     1
  9
$DIMBLK
  1

  9
$DIMASO
 70
     1
  9
$DIMSHO
 70
     1
  9
$DIMPOST
  1

  9
$DIMAPOST
  1

  9
$DIMALT
 70
     0
  9
$DIMALTD
 70
     3
  9
$DIMALTF
 40
0.0393700787
  9
$DIMLFAC
 40
1.0
  9
$DIMTOFL
 70
     1
  9
$DIMTVP
 40
0.0
  9
$DIMTIX
 70
     0
  9
$DIMSOXD
 70
     0
  9
$DIMSAH
 70
     0
  9
$DIMBLK1
  1

  9
$DIMBLK2
  1

  9
$DIMSTYLE
  2
ISO-25
  9
$DIMCLRD
 70
     0
  9
$DIMCLRE
 70
     0
  9
$DIMCLRT
 70
     0
  9
$DIMTFAC
 40
1.0
  9
$DIMGAP
 40
1.524
  9
$DIMJUST
 70
     0
  9
$DIMSD1
 70
     0
  9
$DIMSD2
 70
     0
  9
$DIMTOLJ
 70
     0
  9
$DIMTZIN
 70
     1
  9
$DIMALTZ
 70
     0
  9
$DIMALTTZ
 70
     0
  9
$DIMUPT
 70
     0
  9
$DIMDEC
 70
     1
  9
$DIMTDEC
 70
     1
  9
$DIMALTU
 70
     2
  9
$DIMALTTD
 70
     3
  9
$DIMTXSTY
  7
Standard
  9
$DIMAUNIT
 70
     0
  9
$DIMADEC
 70
     1
  9
$DIMALTRND
 40
0.0
  9
$DIMAZIN
 70
     0
  9
$DIMDSEP
 70
    44
  9
$DIMATFIT
 70
     3
  9
$DIMFRAC
 70
     0
  9
$DIMLDRBLK
  1

  9
$DIMLUNIT
 70
     2
  9
$DIMLWD
 70
    -2
  9
$DIMLWE
 70
    -2
  9
$DIMTMOVE
 70
     0
  9
$LUNITS
 70
     2
  9
$LUPREC
 70
     3
  9
$SKETCHINC
 40
1.0
  9
$FILLETRAD
 40
0.0
  9
$AUNITS
 70
     0
  9
$AUPREC
 70
     2
  9
$MENU
  1
.
  9
$ELEVATION
 40
0.0
  9
$PELEVATION
 40
0.0
  9
$THICKNESS
 40
0.0
  9
$LIMCHECK
 70
     0
  9
$CHAMFERA
 40
0.0
  9
$CHAMFERB
 40
0.0
  9
$CHAMFERC
 40
0.0
  9
$CHAMFERD
 40
0.0
  9
$SKPOLY
 70
     0
  9
$TDCREATE
 40
2460088.558355428
  9
$TDUCREATE
 40
2460088.433355428
  9
$TDUPDATE
 40
2460088.558355752
  9
$TDUUPDATE
 40
2460088.433355752
  9
$TDINDWG
 40
0.0000000116
  9
$TDUSRTIMER
 40
0.0000000116
  9
$USRTIMER
 70
     1
  9
$ANGBASE
 50
0.0
  9
$ANGDIR
 70
     0
  9
$PDMODE
 70
     0
  9
$PDSIZE
 40
-1.0
  9
$PLINEWID
 40
0.0
  9
$SPLFRAME
 70
     0
  9
$SPLINETYPE
 70
     6
  9
$SPLINESEGS
 70
     8
  9
$HANDSEED
  5
30C
  9
$SURFTAB1
 70
     6
  9
$SURFTAB2
 70
     6
  9
$SURFTYPE
 70
     6
  9
$SURFU
 70
     6
  9
$SURFV
 70
     6
  9
$UCSBASE
  2

  9
$UCSNAME
  2

  9
$UCSORG
 10
0.0
 20
0.0
 30
0.0
  9
$UCSXDIR
 10
1.0
 20
0.0
 30
0.0
  9
$UCSYDIR
 10
0.0
 20
1.0
 30
0.0
  9
$UCSORTHOREF
  2

  9
$UCSORTHOVIEW
 70
     0
  9
$UCSORGTOP
 10
0.0
 20
0.0
 30
0.0
  9
$UCSORGBOTTOM
 10
0.0
 20
0.0
 30
0.0
  9
$UCSORGLEFT
 10
0.0
 20
0.0
 30
0.0
  9
$UCSORGRIGHT
 10
0.0
 20
0.0
 30
0.0
  9
$UCSORGFRONT
 10
0.0
 20
0.0
 30
0.0
  9
$UCSORGBACK
 10
0.0
 20
0.0
 30
0.0
  9
$PUCSBASE
  2

  9
$PUCSNAME
  2

  9
$PUCSORG
 10
0.0
 20
0.0
 30
0.0
  9
$PUCSXDIR
 10
1.0
 20
0.0
 30
0.0
  9
$PUCSYDIR
 10
0.0
 20
1.0
 30
0.0
  9
$PUCSORTHOREF
  2

  9
$PUCSORTHOVIEW
 70
     0
  9
$PUCSORGTOP
 10
0.0
 20
0.0
 30
0.0
  9
$PUCSORGBOTTOM
 10
0.0
 20
0.0
 30
0.0
  9
$PUCSORGLEFT
 10
0.0
 20
0.0
 30
0.0
  9
$PUCSORGRIGHT
 10
0.0
 20
0.0
 30
0.0
  9
$PUCSORGFRONT
 10
0.0
 20
0.0
 30
0.0
  9
$PUCSORGBACK
 10
0.0
 20
0.0
 30
0.0
  9
$USERI1
 70
     0
  9
$USERI2
 70
     0
  9
$USERI3
 70
     0
  9
$USERI4
 70
     0
  9
$USERI5
 70
     0
  9
$USERR1
 40
0.0
  9
$USERR2
 40
0.0
  9
$USERR3
 40
0.0
  9
$USERR4
 40
0.0
  9
$USERR5
 40
0.0
  9
$WORLDVIEW
 70
     1
  9
$SHADEDGE
 70
     3
  9
$SHADEDIF
 70
    70
  9
$TILEMODE
 70
     1
  9
$MAXACTVP
 70
    64
  9
$PINSBASE
 10
0.0
 20
0.0
 30
0.0
  9
$PLIMCHECK
 70
     0
  9
$PEXTMIN
 10
1.0000000000E+20
 20
1.0000000000E+20
 30
1.0000000000E+20
  9
$PEXTMAX
 10
-1.0000000000E+20
 20
-1.0000000000E+20
 30
-1.0000000000E+20
  9
$PLIMMIN
 10
0.0
 20
0.0
  9
$PLIMMAX
 10
420.0
 20
297.0
  9
$UNITMODE
 70
     0
  9
$VISRETAIN
 70
     1
  9
$PLINEGEN
 70
     0
  9
$PSLTSCALE
 70
     1
  9
$TREEDEPTH
 70
  3020
  9
$CMLSTYLE
  2
Standard
  9
$CMLJUST
 70
     0
  9
$CMLSCALE
 40
20.0
  9
$PROXYGRAPHICS
 70
     1
  9
$MEASUREMENT
 70
     1
  9
$CELWEIGHT
370
    -1
  9
$ENDCAPS
280
     0
  9
$JOINSTYLE
280
     0
  9
$LWDISPLAY
290
     1
  9
$INSUNITS
 70
     4
  9
$HYPERLINKBASE
  1

  9
$STYLESHEET
  1

  9
$XEDIT
290
     1
  9
$CEPSNTYPE
380
     0
  9
$PSTYLEMODE
290
     1
  9
$FINGERPRINTGUID
  2
{9e6c18a7-fb45-4959-80f4-8352e29802b7}
  9
$VERSIONGUID
  2
{FAEB1C32-E019-11D5-929B-00C0DF256EC4}
  9
$EXTNAMES
290
     1
  9
$PSVPSCALE
 40
0.0
  9
$OLESTARTUP
290
     0
  0
ENDSEC
  0
SECTION
  2
CLASSES
  0
CLASS
  1
ACDBDICTIONARYWDFLT
  2
AcDbDictionaryWithDefault
  3
ObjectDBX Classes
 90
        0
280
     0
281
     0
  0
CLASS
  1
VISUALSTYLE
  2
AcDbVisualStyle
  3
ObjectDBX Classes
 90
     4095
280
     0
281
     0
  0
CLASS
  1
MATERIAL
  2
AcDbMaterial
  3
ObjectDBX Classes
 90
     1153
280
     0
281
     0
  0
CLASS
  1
SCALE
  2
AcDbScale
  3
ObjectDBX Classes
 90
     1153
280
     0
281
     0
  0
CLASS
  1
TABLESTYLE
  2
AcDbTableStyle
  3
ObjectDBX Classes
 90
     4095
280
     0
281
     0
  0
CLASS
  1
MLEADERSTYLE
  2
AcDbMLeaderStyle
  3
ACDB_MLEADERSTYLE_CLASS
 90
     4095
280
     0
281
     0
  0
CLASS
  1
SUN
  2
AcDbSun
  3
SCENEOE
 90
     1153
280
     0
281
     0
  0
CLASS
  1
ACDBPLACEHOLDER
  2
AcDbPlaceHolder
  3
ObjectDBX Classes
 90
        0
280
     0
281
     0
  0
CLASS
  1
LAYOUT
  2
AcDbLayout
  3
ObjectDBX Classes
 90
        0
280
     0
281
     0
  0
ENDSEC
  0
SECTION
  2
TABLES
  0
TABLE
  2
VPORT
  5
8
330
0
100
AcDbSymbolTable
 70
     1
  0
VPORT
  5
29
330
8
100
AcDbSymbolTableRecord
100
AcDbViewportTableRecord
  2
*Active
 70
     0
 10
0.0
 20
0.0
 11
1.0
 21
1.0
 12
148.5
 22
105.0
 13
0.0
 23
0.0
 14
10.0
 24
10.0
 15
10.0
 25
10.0
 16
0.0
 26
0.0
 36
1.0
 17
0.0
 27
0.0
 37
0.0
 40
210.0
 41
1.4142857143
 42
50.0
 43
0.0
 44
0.0
 50
0.0
 51
0.0
 71
     0
 72
  2000
 73
     1
 74
     3
 75
     0
 76
     0
 77
     0
 78
     0
281
     0
 65
     1
110
0.0
120
0.0
130
0.0
111
1.0
121
0.0
131
0.0
112
0.0
122
1.0
132
0.0
 79
     0
146
0.0
  0
ENDTAB
  0
TABLE
  2
LTYPE
  5
5
330
0
100
AcDbSymbolTable
 70
     6
  0
LTYPE
  5
14
330
5
100
AcDbSymbolTableRecord
100
AcDbLinetypeTableRecord
  2
ByBlock
 70
     0
  3

 72
    65
 73
     0
 40
0.0
  0
LTYPE
  5
15
330
5
100
AcDbSymbolTableRecord
100
AcDbLinetypeTableRecord
  2
ByLayer
 70
     0
  3

 72
    65
 73
     0
 40
0.0
  0
LTYPE
  5
16
330
5
100
AcDbSymbolTableRecord
100
AcDbLinetypeTableRecord
  2
Continuous
 70
     0
  3
Solid line
 72
    65
 73
     0
 40
0.0
  0
LTYPE
  5
5E
330
5
100
AcDbSymbolTableRecord
100
AcDbLinetypeTableRecord
  2
HIDDEN
 70
     0
  3
Hidden __ __ __ __ __ __ __ __ __ __ __ __ __ __
 72
    65
 73
     2
 40
1.905
 49
1.27
 74
     0
 49
-0.635
 74
     0
  0
LTYPE
  5
5F
330
5
100
AcDbSymbolTableRecord
100
AcDbLinetypeTableRecord
  2
PHANTOM
 70
     0
  3
Phantom ______  __  __  ______  __  __  ______
 72
    65
 73
     6
 40
12.7
 49
6.35
 74
     0
 49
-1.27
 74
     0
 49
1.27
 74
     0
 49
-1.27
 74
     0
 49
1.27
 74
     0
 49
-1.27
 74
     0
  0
LTYPE
  5
60
330
5
100
AcDbSymbolTableRecord
100
AcDbLinetypeTableRecord
  2
CENTER
 70
     0
  3
Center ____ _ ____ _ ____ _ ____ _ ____ _ ____
 72
    65
 73
     4
 40
10.16
 49
6.35
 74
     0
 49
-1.27
 74
     0
 49
1.27
 74
     0
 49
-1.27
 74
     0
  0
LTYPE
  5
61
330
5
100
AcDbSymbolTableRecord
100
AcDbLinetypeTableRecord
  2
CENTERX2
 70
     0
  3
Center (2x) ________  __  ________  __  _____
 72
    65
 73
     4
 40
20.32
 49
12.7
 74
     0
 49
-2.54
 74
     0
 49
2.54
 74
     0
 49
-2.54
 74
     0
  0
LTYPE
  5
62
330
5
100
AcDbSymbolTableRecord
100
AcDbLinetypeTableRecord
  2
DOT2
 70
     0
  3
Dot (.5x) ........................................
 72
    65
 73
     2
 40
0.635
 49
0.0
 74
     0
 49
-0.635
 74
     0
  0
ENDTAB
  0
TABLE
  2
LAYER
  5
2
330
0
100
AcDbSymbolTable
 70
     1
  0
LAYER
  5
10
330
2
100
AcDbSymbolTableRecord
100
AcDbLayerTableRecord
  2
0
 70
     0
 62
     7
  6
Continuous
370
    -3
390
F
  0
ENDTAB
  0
TABLE
  2
STYLE
  5
3
330
0
100
AcDbSymbolTable
 70
     1
  0
STYLE
  5
11
330
3
100
AcDbSymbolTableRecord
100
AcDbTextStyleTableRecord
  2
Standard
 70
     0
 40
0.0
 41
1.0
 50
0.0
 71
     0
 42
3.0
  3
txt
  4

  0
ENDTAB
  0
TABLE
  2
VIEW
  5
6
330
0
100
AcDbSymbolTable
 70
     0
  0
ENDTAB
  0
TABLE
  2
UCS
  5
7
330
0
100
AcDbSymbolTable
 70
     0
  0
ENDTAB
  0
TABLE
  2
APPID
  5
9
330
0
100
AcDbSymbolTable
 70
     1
  0
APPID
  5
12
330
9
100
AcDbSymbolTableRecord
100
AcDbRegAppTableRecord
  2
ACAD
 70
     0
  0
ENDTAB
  0
TABLE
  2
DIMSTYLE
  5
A
330
0
100
AcDbSymbolTable
 70
     1
100
AcDbDimStyleTable
  0
DIMSTYLE
105
27
330
A
100
AcDbSymbolTableRecord
100
AcDbDimStyleTableRecord
  2
ISO-25
 70
     0
 41
2.5
 42
0.625
 43
3.75
 44
1.25
 73
     0
 74
     0
 77
     1
 78
     8
140
2.5
141
2.5
143
0.0393700787
147
0.625
171
     3
172
     1
178
     0
271
     2
272
     2
274
     3
278
    44
283
     0
284
     8
340
11
  0
ENDTAB
  0
TABLE
  2
BLOCK_RECORD
  5
1
330
0
100
AcDbSymbolTable
 70
     6
  0
BLOCK_RECORD
  5
1F
330
1
100
AcDbSymbolTableRecord
100
AcDbBlockTableRecord
  2
*Model_Space
340
22
  0
BLOCK_RECORD
  5
1B
330
1
100
AcDbSymbolTableRecord
100
AcDbBlockTableRecord
  2
*Paper_Space
340
1E
  0
BLOCK_RECORD
  5
23
330
1
100
AcDbSymbolTableRecord
100
AcDbBlockTableRecord
  2
*Paper_Space0
340
26
  0
BLOCK_RECORD
  5
63
330
1
100
AcDbSymbolTableRecord
100
AcDbBlockTableRecord
  2
Block1
340
0
  0
BLOCK_RECORD
  5
201
330
1
100
AcDbSymbolTableRecord
100
AcDbBlockTableRecord
  2
SW_CENTERMARKSYMBOL_0
340
0
102
{BLKREFS
331
20C
102
}
  0
BLOCK_RECORD
  5
20D
330
1
100
AcDbSymbolTableRecord
100
AcDbBlockTableRecord
  2
SW_CENTERMARKSYMBOL_1
340
0
102
{BLKREFS
331
218
102
}
  0
BLOCK_RECORD
  5
219
330
1
100
AcDbSymbolTableRecord
100
AcDbBlockTableRecord
  2
SW_CENTERMARKSYMBOL_2
340
0
102
{BLKREFS
331
224
102
}
  0
BLOCK_RECORD
  5
225
330
1
100
AcDbSymbolTableRecord
100
AcDbBlockTableRecord
  2
SW_CENTERMARKSYMBOL_3
340
0
102
{BLKREFS
331
230
102
}
  0
ENDTAB
  0
ENDSEC
  0
SECTION
  2
BLOCKS
  0
BLOCK
  5
20
330
1F
100
AcDbEntity
  8
0
100
AcDbBlockBegin
  2
*Model_Space
 70
     0
 10
0.0
 20
0.0
 30
0.0
  3
*Model_Space
  1

  0
ENDBLK
  5
21
330
1F
100
AcDbEntity
  8
0
100
AcDbBlockEnd
  0
BLOCK
  5
1C
330
1B
100
AcDbEntity
 67
     1
  8
0
100
AcDbBlockBegin
  2
*Paper_Space
 70
     0
 10
0.0
 20
0.0
 30
0.0
  3
*Paper_Space
  1

  0
ENDBLK
  5
1D
330
1B
100
AcDbEntity
 67
     1
  8
0
100
AcDbBlockEnd
  0
BLOCK
  5
24
330
23
100
AcDbEntity
  8
0
100
AcDbBlockBegin
  2
*Paper_Space0
 70
     0
 10
0.0
 20
0.0
 30
0.0
  3
*Paper_Space0
  1

  0
ENDBLK
  5
25
330
23
100
AcDbEntity
  8
0
100
AcDbBlockEnd
  0
BLOCK
  5
64
330
63
100
AcDbEntity
  8
0
100
AcDbBlockBegin
  2
Block1
 70
     0
 10
0.0
 20
0.0
 30
0.0
  3
Block1
  1

  0
CIRCLE
  5
66
330
63
100
AcDbEntity
  8
0
  6
Continuous
 62
     7
370
    18
100
AcDbCircle
 10
6.248070026
 20
0.0
 30
0.0
 40
1.988282521106477
  0
CIRCLE
  5
67
330
63
100
AcDbEntity
  8
0
  6
Continuous
 62
     7
370
    18
100
AcDbCircle
 10
6.248070026
 20
0.0
 30
0.0
 40
0.9482761577509786
  0
LINE
  5
68
330
63
100
AcDbEntity
  8
0
  6
Continuous
 62
     7
370
    18
100
AcDbLine
 10
-3.2378965263
 20
1.8463686505
 30
0.0
 11
-3.2378965263
 21
-1.9882825211
 31
0.0
  0
LINE
  5
69
330
63
100
AcDbEntity
  8
0
  6
Continuous
 62
     7
370
    18
100
AcDbLine
 10
-3.2378965263
 20
-1.9882825211
 30
0.0
 11
3.2919781237
 21
-0.9482761578
 31
0.0
  0
LINE
  5
6A
330
63
100
AcDbEntity
  8
0
  6
Continuous
 62
     7
370
    18
100
AcDbLine
 10
3.2919781237
 20
-0.9482761578
 30
0.0
 11
3.2919781237
 21
0.9331837441
 31
0.0
  0
LINE
  5
6B
330
63
100
AcDbEntity
  8
0
  6
Continuous
 62
     7
370
    18
100
AcDbLine
 10
3.2919781237
 20
0.9331837441
 30
0.0
 11
-3.2378965263
 21
1.8463686505
 31
0.0
  0
ENDBLK
  5
65
330
63
100
AcDbEntity
  8
0
100
AcDbBlockEnd
  0
BLOCK
  5
202
330
201
100
AcDbEntity
  8
0
100
AcDbBlockBegin
  2
SW_CENTERMARKSYMBOL_0
 70
     0
 10
0.0
 20
0.0
 30
0.0
  3
SW_CENTERMARKSYMBOL_0
  1

  0
LINE
  5
204
330
201
100
AcDbEntity
  8
0
  6
Continuous
 62
     0
370
    18
100
AcDbLine
 10
0.0
 20
0.0
 30
0.0
 11
0.0
 21
2.5
 31
0.0
  0
LINE
  5
205
330
201
100
AcDbEntity
  8
0
  6
Continuous
 62
     0
370
    18
100
AcDbLine
 10
0.0
 20
0.0
 30
0.0
 11
-2.5
 21
0.0
 31
0.0
  0
LINE
  5
206
330
201
100
AcDbEntity
  8
0
  6
Continuous
 62
     0
370
    18
100
AcDbLine
 10
0.0
 20
0.0
 30
0.0
 11
0.0
 21
-2.5
 31
0.0
  0
LINE
  5
207
330
201
100
AcDbEntity
  8
0
  6
Continuous
 62
     0
370
    18
100
AcDbLine
 10
0.0
 20
0.0
 30
0.0
 11
2.5
 21
0.0
 31
0.0
  0
LINE
  5
208
330
201
100
AcDbEntity
  8
0
  6
Continuous
 62
     0
370
    18
100
AcDbLine
 10
0.0
 20
2.5
 30
0.0
 11
0.0
 21
2.99
 31
0.0
  0
LINE
  5
209
330
201
100
AcDbEntity
  8
0
  6
Continuous
 62
     0
370
    18
100
AcDbLine
 10
-2.5
 20
0.0
 30
0.0
 11
-2.99
 21
0.0
 31
0.0
  0
LINE
  5
20A
330
201
100
AcDbEntity
  8
0
  6
Continuous
 62
     0
370
    18
100
AcDbLine
 10
0.0
 20
-2.5
 30
0.0
 11
0.0
 21
-2.99
 31
0.0
  0
LINE
  5
20B
330
201
100
AcDbEntity
  8
0
  6
Continuous
 62
     0
370
    18
100
AcDbLine
 10
2.5
 20
0.0
 30
0.0
 11
2.99
 21
0.0
 31
0.0
  0
ENDBLK
  5
203
330
201
100
AcDbEntity
  8
0
100
AcDbBlockEnd
  0
BLOCK
  5
20E
330
20D
100
AcDbEntity
  8
0
100
AcDbBlockBegin
  2
SW_CENTERMARKSYMBOL_1
 70
     0
 10
0.0
 20
0.0
 30
0.0
  3
SW_CENTERMARKSYMBOL_1
  1

  0
LINE
  5
210
330
20D
100
AcDbEntity
  8
0
  6
Continuous
 62
     0
370
    18
100
AcDbLine
 10
0.0
 20
0.0
 30
0.0
 11
0.0
 21
2.5
 31
0.0
  0
LINE
  5
211
330
20D
100
AcDbEntity
  8
0
  6
Continuous
 62
     0
370
    18
100
AcDbLine
 10
0.0
 20
0.0
 30
0.0
 11
-2.5
 21
0.0
 31
0.0
  0
LINE
  5
212
330
20D
100
AcDbEntity
  8
0
  6
Continuous
 62
     0
370
    18
100
AcDbLine
 10
0.0
 20
0.0
 30
0.0
 11
0.0
 21
-2.5
 31
0.0
  0
LINE
  5
213
330
20D
100
AcDbEntity
  8
0
  6
Continuous
 62
     0
370
    18
100
AcDbLine
 10
0.0
 20
0.0
 30
0.0
 11
2.5
 21
0.0
 31
0.0
  0
LINE
  5
214
330
20D
100
AcDbEntity
  8
0
  6
Continuous
 62
     0
370
    18
100
AcDbLine
 10
0.0
 20
2.5
 30
0.0
 11
0.0
 21
2.99
 31
0.0
  0
LINE
  5
215
330
20D
100
AcDbEntity
  8
0
  6
Continuous
 62
     0
370
    18
100
AcDbLine
 10
-2.5
 20
0.0
 30
0.0
 11
-2.99
 21
0.0
 31
0.0
  0
LINE
  5
216
330
20D
100
AcDbEntity
  8
0
  6
Continuous
 62
     0
370
    18
100
AcDbLine
 10
0.0
 20
-2.5
 30
0.0
 11
0.0
 21
-2.99
 31
0.0
  0
LINE
  5
217
330
20D
100
AcDbEntity
  8
0
  6
Continuous
 62
     0
370
    18
100
AcDbLine
 10
2.5
 20
0.0
 30
0.0
 11
2.99
 21
0.0
 31
0.0
  0
ENDBLK
  5
20F
330
20D
100
AcDbEntity
  8
0
100
AcDbBlockEnd
  0
BLOCK
  5
21A
330
219
100
AcDbEntity
  8
0
100
AcDbBlockBegin
  2
SW_CENTERMARKSYMBOL_2
 70
     0
 10
0.0
 20
0.0
 30
0.0
  3
SW_CENTERMARKSYMBOL_2
  1

  0
LINE
  5
21C
330
219
100
AcDbEntity
  8
0
  6
Continuous
 62
     0
370
    18
100
AcDbLine
 10
0.0
 20
0.0
 30
0.0
 11
0.0
 21
2.5
 31
0.0
  0
LINE
  5
21D
330
219
100
AcDbEntity
  8
0
  6
Continuous
 62
     0
370
    18
100
AcDbLine
 10
0.0
 20
0.0
 30
0.0
 11
-2.5
 21
0.0
 31
0.0
  0
LINE
  5
21E
330
219
100
AcDbEntity
  8
0
  6
Continuous
 62
     0
370
    18
100
AcDbLine
 10
0.0
 20
0.0
 30
0.0
 11
0.0
 21
-2.5
 31
0.0
  0
LINE
  5
21F
330
219
100
AcDbEntity
  8
0
  6
Continuous
 62
     0
370
    18
100
AcDbLine
 10
0.0
 20
0.0
 30
0.0
 11
2.5
 21
0.0
 31
0.0
  0
LINE
  5
220
330
219
100
AcDbEntity
  8
0
  6
Continuous
 62
     0
370
    18
100
AcDbLine
 10
0.0
 20
2.5
 30
0.0
 11
0.0
 21
2.99
 31
0.0
  0
LINE
  5
221
330
219
100
AcDbEntity
  8
0
  6
Continuous
 62
     0
370
    18
100
AcDbLine
 10
-2.5
 20
0.0
 30
0.0
 11
-2.99
 21
0.0
 31
0.0
  0
LINE
  5
222
330
219
100
AcDbEntity
  8
0
  6
Continuous
 62
     0
370
    18
100
AcDbLine
 10
0.0
 20
-2.5
 30
0.0
 11
0.0
 21
-2.99
 31
0.0
  0
LINE
  5
223
330
219
100
AcDbEntity
  8
0
  6
Continuous
 62
     0
370
    18
100
AcDbLine
 10
2.5
 20
0.0
 30
0.0
 11
2.99
 21
0.0
 31
0.0
  0
ENDBLK
  5
21B
330
219
100
AcDbEntity
  8
0
100
AcDbBlockEnd
  0
BLOCK
  5
226
330
225
100
AcDbEntity
  8
0
100
AcDbBlockBegin
  2
SW_CENTERMARKSYMBOL_3
 70
     0
 10
0.0
 20
0.0
 30
0.0
  3
SW_CENTERMARKSYMBOL_3
  1

  0
LINE
  5
228
330
225
100
AcDbEntity
  8
0
  6
Continuous
 62
     0
370
    18
100
AcDbLine
 10
0.0
 20
0.0
 30
0.0
 11
0.0
 21
2.5
 31
0.0
  0
LINE
  5
229
330
225
100
AcDbEntity
  8
0
  6
Continuous
 62
     0
370
    18
100
AcDbLine
 10
0.0
 20
0.0
 30
0.0
 11
-2.5
 21
0.0
 31
0.0
  0
LINE
  5
22A
330
225
100
AcDbEntity
  8
0
  6
Continuous
 62
     0
370
    18
100
AcDbLine
 10
0.0
 20
0.0
 30
0.0
 11
0.0
 21
-2.5
 31
0.0
  0
LINE
  5
22B
330
225
100
AcDbEntity
  8
0
  6
Continuous
 62
     0
370
    18
100
AcDbLine
 10
0.0
 20
0.0
 30
0.0
 11
2.5
 21
0.0
 31
0.0
  0
LINE
  5
22C
330
225
100
AcDbEntity
  8
0
  6
Continuous
 62
     0
370
    18
100
AcDbLine
 10
0.0
 20
2.5
 30
0.0
 11
0.0
 21
2.99
 31
0.0
  0
LINE
  5
22D
330
225
100
AcDbEntity
  8
0
  6
Continuous
 62
     0
370
    18
100
AcDbLine
 10
-2.5
 20
0.0
 30
0.0
 11
-2.99
 21
0.0
 31
0.0
  0
LINE
  5
22E
330
225
100
AcDbEntity
  8
0
  6
Continuous
 62
     0
370
    18
100
AcDbLine
 10
0.0
 20
-2.5
 30
0.0
 11
0.0
 21
-2.99
 31
0.0
  0
LINE
  5
22F
330
225
100
AcDbEntity
  8
0
  6
Continuous
 62
     0
370
    18
100
AcDbLine
 10
2.5
 20
0.0
 30
0.0
 11
2.99
 21
0.0
 31
0.0
  0
ENDBLK
  5
227
330
225
100
AcDbEntity
  8
0
100
AcDbBlockEnd
  0
ENDSEC
  0
SECTION
  2
ENTITIES
  0
LINE
  5
6C
330
1F
100
AcDbEntity
  8
0
  6
Continuous
 62
     7
370
    25
100
AcDbLine
 10
103.9494773025
 20
68.6858203985
 30
0.0
 11
103.9494773025
 21
54.8774656409
 31
0.0
  0
LINE
  5
6D
330
1F
100
AcDbEntity
  8
0
  6
Continuous
 62
     7
370
    25
100
AcDbLine
 10
104.9294773025
 20
54.7947540155
 30
0.0
 11
104.9294773025
 21
68.800458976
 31
0.0
  0
LINE
  5
6E
330
1F
100
AcDbEntity
  8
0
  6
Continuous
 62
     7
370
    25
100
AcDbLine
 10
27.4126253513
 20
55.6384400942
 30
0.0
 11
26.4550681521
 21
55.4458620637
 31
0.0
  0
LINE
  5
6F
330
1F
100
AcDbEntity
  8
0
  6
Continuous
 62
     7
370
    25
100
AcDbLine
 10
26.0054853861
 20
54.3558222595
 30
0.0
 11
27.4126253513
 21
54.6388176182
 31
0.0
  0
LINE
  5
70
330
1F
100
AcDbEntity
  8
0
  6
Continuous
 62
     7
370
    25
100
AcDbLine
 10
26.4550681521
 20
54.90482432
 30
0.0
 11
26.4550681521
 21
68.7131790776
 31
0.0
  0
LINE
  5
71
330
1F
100
AcDbEntity
  8
0
  6
Continuous
 62
     7
370
    25
100
AcDbLine
 10
25.4750681521
 20
68.795890703
 30
0.0
 11
25.4750681521
 21
54.7901857425
 31
0.0
  0
LINE
  5
72
330
1F
100
AcDbEntity
  8
0
  6
Continuous
 62
     7
370
    25
100
AcDbLine
 10
102.9919201032
 20
67.9522046243
 30
0.0
 11
103.9494773025
 21
68.1447826548
 31
0.0
  0
LINE
  5
73
330
1F
100
AcDbEntity
  8
0
  6
Continuous
 62
     7
370
    25
100
AcDbLine
 10
104.3990600684
 20
69.234822459
 30
0.0
 11
102.9919201032
 21
68.9518271003
 31
0.0
  0
LINE
  5
74
330
1F
100
AcDbEntity
  8
0
  6
Continuous
 62
     7
370
    25
100
AcDbLine
 10
103.9494773025
 20
55.3261098282
 30
0.0
 11
102.9919201032
 21
55.3261098282
 31
0.0
  0
LINE
  5
75
330
1F
100
AcDbEntity
  8
0
  6
Continuous
 62
     7
370
    25
100
AcDbLine
 10
102.9919201032
 20
54.3461098282
 30
0.0
 11
104.4808331152
 21
54.3461098282
 31
0.0
  0
LINE
  5
76
330
1F
100
AcDbEntity
  8
0
  6
Continuous
 62
     7
370
    25
100
AcDbLine
 10
26.4550681521
 20
68.2645348903
 30
0.0
 11
27.4126253513
 21
68.2645348903
 31
0.0
  0
LINE
  5
77
330
1F
100
AcDbEntity
  8
0
  6
Continuous
 62
     7
370
    25
100
AcDbLine
 10
27.4126253513
 20
69.2445348903
 30
0.0
 11
25.9237123394
 21
69.2445348903
 31
0.0
  0
ELLIPSE
  5
78
330
1F
100
AcDbEntity
  8
0
  6
Continuous
 62
     7
370
    25
100
AcDbEllipse
 10
104.4394773025
 20
68.7431396872
 30
0.0
 11
0.3318851874584823
 21
0.4052772160657696
 31
0.0
210
0.0
220
0.0
230
1.0
 40
0.8894871251
 41
0.6295391162546963
 42
2.314905504847865
  0
ELLIPSE
  5
79
330
1F
100
AcDbEntity
  8
0
  6
Continuous
 62
     7
370
    25
100
AcDbEllipse
 10
104.4394773025
 20
68.7431396872
 30
0.0
 11
0.3318851874584823
 21
0.4052772160657696
 31
0.0
210
0.0
220
0.0
230
1.0
 40
0.8894871251
 41
5.456498158437644
 42
6.912724423434282
  0
ELLIPSE
  5
7A
330
1F
100
AcDbEntity
  8
0
  6
Continuous
 62
     7
370
    25
100
AcDbEllipse
 10
104.4394773025
 20
54.8361098282
 30
0.0
 11
0.3608076691358093
 21
-0.3608076691357951
 31
0.0
210
0.0
220
0.0
230
1.0
 40
0.9188789544
 41
3.884740746563156
 42
5.540037214206254
  0
ELLIPSE
  5
7B
330
1F
100
AcDbEntity
  8
0
  6
Continuous
 62
     7
370
    25
100
AcDbEllipse
 10
104.4394773025
 20
54.8361098282
 30
0.0
 11
0.3608076691358093
 21
-0.3608076691357951
 31
0.0
210
0.0
220
0.0
230
1.0
 40
0.9188789544
 41
5.540037214206224
 42
7.026333400152923
  0
ELLIPSE
  5
7C
330
1F
100
AcDbEntity
  8
0
  6
Continuous
 62
     7
370
    25
100
AcDbEllipse
 10
25.9650681521
 20
54.8475050313
 30
0.0
 11
0.3318851874584929
 21
0.4052772160657837
 31
0.0
210
0.0
220
0.0
230
0.9999999999999998
 40
0.8894871251
 41
3.771131769844491
 42
5.456498158437647
  0
ELLIPSE
  5
7D
330
1F
100
AcDbEntity
  8
0
  6
Continuous
 62
     7
370
    25
100
AcDbEllipse
 10
25.9650681521
 20
54.8475050313
 30
0.0
 11
0.3318851874584929
 21
0.4052772160657837
 31
0.0
210
0.0
220
0.0
230
0.9999999999999998
 40
0.8894871251
 41
2.314905504847827
 42
3.77113176984452
  0
ELLIPSE
  5
7E
330
1F
100
AcDbEntity
  8
0
  6
Continuous
 62
     7
370
    25
100
AcDbEllipse
 10
25.9650681521
 20
68.7545348903
 30
0.0
 11
0.3608076691357986
 21
-0.3608076691357951
 31
0.0
210
0.0
220
0.0
230
1.0
 40
0.9188789544
 41
0.7431480929733729
 42
2.398444560616419
  0
ELLIPSE
  5
7F
330
1F
100
AcDbEntity
  8
0
  6
Continuous
 62
     7
370
    25
100
AcDbEllipse
 10
25.9650681521
 20
68.7545348903
 30
0.0
 11
0.3608076691357986
 21
-0.3608076691357951
 31
0.0
210
0.0
220
0.0
230
1.0
 40
0.9188789544
 41
2.39844456061639
 42
3.884740746563152
  0
ELLIPSE
  5
80
330
1F
100
AcDbEntity
  8
0
  6
Continuous
 62
     7
370
    25
100
AcDbEllipse
 10
34.4054051832
 20
76.7815134097
 30
0.0
 11
-0.3539842722814015
 21
0.3539842723178594
 31
0.0
210
0.0
220
0.0
230
0.9999999999999999
 40
0.998782766
 41
5.498396131419034
 42
7.067974483043089
  0
LINE
  5
81
330
1F
100
AcDbEntity
  8
0
  6
Continuous
 62
     7
370
    25
100
AcDbLine
 10
33.9051004111
 20
45.7815135953
 30
0.0
 11
33.9051004111
 21
76.7821227683
 31
0.0
  0
ELLIPSE
  5
82
330
1F
100
AcDbEntity
  8
0
  6
Continuous
 62
     7
370
    25
100
AcDbEllipse
 10
34.4054051832
 20
45.782122954
 30
0.0
 11
-0.3539842722973603
 21
-0.3539842723018368
 31
0.0
210
0.0
220
0.0
230
1.0
 40
0.998782766
 41
5.498396131361493
 42
7.067974482985245
  0
LINE
  5
83
330
1F
100
AcDbEntity
  8
0
  6
Continuous
 62
     7
370
    25
100
AcDbLine
 10
95.9997496299
 20
45.2818181818
 30
0.0
 11
34.4047958246
 21
45.2818181818
 31
0.0
  0
ELLIPSE
  5
84
330
1F
100
AcDbEntity
  8
0
  6
Continuous
 62
     7
370
    25
100
AcDbEllipse
 10
95.9991402713
 20
45.782122954
 30
0.0
 11
0.3539842722813943
 21
-0.3539842723178523
 31
0.0
210
0.0
220
0.0
230
0.9999999999999999
 40
0.998782766
 41
5.498396131419067
 42
7.067974483043112
  0
LINE
  5
85
330
1F
100
AcDbEntity
  8
0
  6
Continuous
 62
     7
370
    25
100
AcDbLine
 10
96.4994450435
 20
76.7821227683
 30
0.0
 11
96.4994450435
 21
45.7815135953
 31
0.0
  0
ELLIPSE
  5
86
330
1F
100
AcDbEntity
  8
0
  6
Continuous
 62
     7
370
    25
100
AcDbEllipse
 10
95.9991402713
 20
76.7815134097
 30
0.0
 11
0.3539842722973532
 21
0.3539842723018438
 31
0.0
210
0.0
220
0.0
230
1.0
 40
0.998782766
 41
5.498396131361517
 42
7.067974482985182
  0
LINE
  5
87
330
1F
100
AcDbEntity
  8
0
  6
Continuous
 62
     7
370
    25
100
AcDbLine
 10
34.4047958246
 20
77.2818181818
 30
0.0
 11
95.9997496299
 21
77.2818181818
 31
0.0
  0
ELLIPSE
  5
88
330
1F
100
AcDbEntity
  8
0
  6
Continuous
 62
     7
370
    25
100
AcDbEllipse
 10
28.3142209575
 20
38.7409387282
 30
0.0
 11
-0.1781246519727908
 21
-0.1781246519723467
 31
0.0
210
0.0
220
0.0
230
1.0
 40
0.9924325091
 41
5.501585242056675
 42
7.064785372305049
  0
LINE
  5
89
330
1F
100
AcDbEntity
  8
0
  6
Continuous
 62
     7
370
    25
100
AcDbLine
 10
28.0632659981
 20
38.7390324433
 30
0.0
 11
28.0632659981
 21
83.8246039203
 31
0.0
  0
ELLIPSE
  5
8A
330
1F
100
AcDbEntity
  8
0
  6
Continuous
 62
     7
370
    25
100
AcDbEllipse
 10
28.3142209575
 20
83.8226976354
 30
0.0
 11
-0.1781246519730608
 21
0.1781246519720696
 31
0.0
210
0.0
220
0.0
230
1.0
 40
0.9924325091
 41
5.501585242052991
 42
7.064785372300998
  0
LINE
  5
8B
330
1F
100
AcDbEntity
  8
0
  6
Continuous
 62
     7
370
    25
100
AcDbLine
 10
28.3123146726
 20
84.0736525948
 30
0.0
 11
102.0922307819
 21
84.0736525948
 31
0.0
  0
ELLIPSE
  5
8C
330
1F
100
AcDbEntity
  8
0
  6
Continuous
 62
     7
370
    25
100
AcDbEllipse
 10
102.0903244971
 20
83.8226976354
 30
0.0
 11
0.1781246519727944
 21
0.1781246519723396
 31
0.0
210
0.0
220
0.0
230
0.9999999999999998
 40
0.9924325091
 41
5.501585242056694
 42
7.064785372304987
  0
LINE
  5
8D
330
1F
100
AcDbEntity
  8
0
  6
Continuous
 62
     7
370
    25
100
AcDbLine
 10
102.3412794564
 20
83.8246039203
 30
0.0
 11
102.3412794564
 21
38.7390324433
 31
0.0
  0
ELLIPSE
  5
8E
330
1F
100
AcDbEntity
  8
0
  6
Continuous
 62
     7
370
    25
100
AcDbEllipse
 10
102.0903244971
 20
38.7409387282
 30
0.0
 11
0.1781246519730644
 21
-0.1781246519720767
 31
0.0
210
0.0
220
0.0
230
0.9999999999999998
 40
0.9924325091
 41
5.50158524205304
 42
7.064785372301026
  0
LINE
  5
8F
330
1F
100
AcDbEntity
  8
0
  6
Continuous
 62
     7
370
    25
100
AcDbLine
 10
102.0922307819
 20
38.4899837688
 30
0.0
 11
28.3123146726
 21
38.4899837688
 31
0.0
  0
LINE
  5
90
330
1F
100
AcDbEntity
  8
0
  6
Continuous
 62
     7
370
    25
100
AcDbLine
 10
27.5651686491
 20
83.8246039203
 30
0.0
 11
27.5651686491
 21
38.7390324433
 31
0.0
  0
LINE
  5
91
330
1F
100
AcDbEntity
  8
0
  6
Continuous
 62
     7
370
    25
100
AcDbLine
 10
27.5651686491
 20
83.8246039203
 30
0.0
 11
28.0632659981
 21
83.8246039203
 31
0.0
  0
LINE
  5
92
330
1F
100
AcDbEntity
  8
0
  6
Continuous
 62
     7
370
    25
100
AcDbLine
 10
28.0632659981
 20
38.7390324433
 30
0.0
 11
27.5651686491
 21
38.7390324433
 31
0.0
  0
LINE
  5
93
330
1F
100
AcDbEntity
  8
0
  6
Continuous
 62
     7
370
    25
100
AcDbLine
 10
102.8393768055
 20
38.7390324433
 30
0.0
 11
102.8393768055
 21
83.8246039203
 31
0.0
  0
LINE
  5
94
330
1F
100
AcDbEntity
  8
0
  6
Continuous
 62
     7
370
    25
100
AcDbLine
 10
102.8393768055
 20
38.7390324433
 30
0.0
 11
102.3412794564
 21
38.7390324433
 31
0.0
  0
LINE
  5
95
330
1F
100
AcDbEntity
  8
0
  6
Continuous
 62
     7
370
    25
100
AcDbLine
 10
102.3412794564
 20
83.8246039203
 30
0.0
 11
102.8393768055
 21
83.8246039203
 31
0.0
  0
ARC
  5
96
330
1F
100
AcDbEntity
  8
0
  6
Continuous
 62
     7
370
    25
100
AcDbCircle
 10
28.3165377541
 20
83.8203808388
 30
0.0
 40
0.751380972940823
100
AcDbArc
 50
90.3220284119
 51
179.677971588
  0
LINE
  5
97
330
1F
100
AcDbEntity
  8
0
  6
Continuous
 62
     7
370
    25
100
AcDbLine
 10
28.3123146726
 20
84.5717499439
 30
0.0
 11
28.3123146726
 21
84.0736525948
 31
0.0
  0
ARC
  5
98
330
1F
100
AcDbEntity
  8
0
  6
Continuous
 62
     7
370
    25
100
AcDbCircle
 10
102.0880077004
 20
38.7432555249
 30
0.0
 40
0.7513809729407909
100
AcDbArc
 50
270.3220284119
 51
359.677971588
  0
LINE
  5
99
330
1F
100
AcDbEntity
  8
0
  6
Continuous
 62
     7
370
    25
100
AcDbLine
 10
102.0922307819
 20
37.9918864198
 30
0.0
 11
102.0922307819
 21
38.4899837688
 31
0.0
  0
LINE
  5
9A
330
1F
100
AcDbEntity
  8
0
  6
Continuous
 62
     7
370
    25
100
AcDbLine
 10
28.3123146726
 20
38.4899837688
 30
0.0
 11
28.3123146726
 21
37.9918864198
 31
0.0
  0
ARC
  5
9B
330
1F
100
AcDbEntity
  8
0
  6
Continuous
 62
     7
370
    25
100
AcDbCircle
 10
28.3165377541
 20
38.7432555249
 30
0.0
 40
0.7513809729427535
100
AcDbArc
 50
180.322028412
 51
269.6779715879
  0
LINE
  5
9C
330
1F
100
AcDbEntity
  8
0
  6
Continuous
 62
     7
370
    25
100
AcDbLine
 10
102.0922307819
 20
84.0736525948
 30
0.0
 11
102.0922307819
 21
84.5717499439
 31
0.0
  0
ARC
  5
9D
330
1F
100
AcDbEntity
  8
0
  6
Continuous
 62
     7
370
    25
100
AcDbCircle
 10
102.0880077004
 20
83.8203808388
 30
0.0
 40
0.7513809729427964
100
AcDbArc
 50
0.322028412
 51
89.6779715879
  0
LINE
  5
9E
330
1F
100
AcDbEntity
  8
0
  6
Continuous
 62
     7
370
    25
100
AcDbLine
 10
28.3123146726
 20
37.9918864198
 30
0.0
 11
102.0922307819
 21
37.9918864198
 31
0.0
  0
LINE
  5
9F
330
1F
100
AcDbEntity
  8
0
  6
Continuous
 62
     7
370
    25
100
AcDbLine
 10
102.0922307819
 20
84.5717499439
 30
0.0
 11
28.3123146726
 21
84.5717499439
 31
0.0
  0
LINE
  5
A0
330
1F
100
AcDbEntity
  8
0
  6
Continuous
 62
     7
370
    25
100
AcDbLine
 10
27.4126253513
 20
83.977147218
 30
0.0
 11
27.5651686491
 21
83.8246039203
 31
0.0
  0
ELLIPSE
  5
A1
330
1F
100
AcDbEntity
  8
0
  6
Continuous
 62
     7
370
    25
100
AcDbEllipse
 10
28.1654902295
 20
83.9714283634
 30
0.0
 11
-0.5343739559171253
 21
0.5343739559182693
 31
0.0
210
0.0
220
0.0
230
0.9999999999999998
 40
0.9924325091
 41
5.501585242056478
 42
7.064785372304849
  0
LINE
  5
A2
330
1F
100
AcDbEntity
  8
0
  6
Continuous
 62
     7
370
    25
100
AcDbLine
 10
28.3123146726
 20
84.5717499439
 30
0.0
 11
28.1597713749
 21
84.7242932416
 31
0.0
  0
LINE
  5
A3
330
1F
100
AcDbEntity
  8
0
  6
Continuous
 62
     7
370
    25
100
AcDbLine
 10
102.9919201032
 20
38.5864891456
 30
0.0
 11
102.8393768055
 21
38.7390324433
 31
0.0
  0
ELLIPSE
  5
A4
330
1F
100
AcDbEntity
  8
0
  6
Continuous
 62
     7
370
    25
100
AcDbEllipse
 10
102.2390552251
 20
38.5922080002
 30
0.0
 11
0.5343739559171182
 21
-0.5343739559182694
 31
0.0
210
0.0
220
0.0
230
0.9999999999999998
 40
0.9924325091
 41
5.501585242056495
 42
7.064785372304845
  0
LINE
  5
A5
330
1F
100
AcDbEntity
  8
0
  6
Continuous
 62
     7
370
    25
100
AcDbLine
 10
102.0922307819
 20
37.9918864198
 30
0.0
 11
102.2447740796
 21
37.8393431221
 31
0.0
  0
LINE
  5
A6
330
1F
100
AcDbEntity
  8
0
  6
Continuous
 62
     7
370
    25
100
AcDbLine
 10
28.1597713749
 20
37.8393431221
 30
0.0
 11
28.3123146726
 21
37.9918864198
 31
0.0
  0
ELLIPSE
  5
A7
330
1F
100
AcDbEntity
  8
0
  6
Continuous
 62
     7
370
    25
100
AcDbEllipse
 10
28.1654902295
 20
38.5922080002
 30
0.0
 11
-0.5343739559184186
 21
-0.5343739559169975
 31
0.0
210
0.0
220
0.0
230
0.9999999999999998
 40
0.9924325091
 41
5.501585242056736
 42
7.064785372305121
  0
LINE
  5
A8
330
1F
100
AcDbEntity
  8
0
  6
Continuous
 62
     7
370
    25
100
AcDbLine
 10
27.5651686491
 20
38.7390324433
 30
0.0
 11
27.4126253513
 21
38.5864891456
 31
0.0
  0
LINE
  5
A9
330
1F
100
AcDbEntity
  8
0
  6
Continuous
 62
     7
370
    25
100
AcDbLine
 10
102.2447740796
 20
84.7242932416
 30
0.0
 11
102.0922307819
 21
84.5717499439
 31
0.0
  0
ELLIPSE
  5
AA
330
1F
100
AcDbEntity
  8
0
  6
Continuous
 62
     7
370
    25
100
AcDbEllipse
 10
102.2390552251
 20
83.9714283634
 30
0.0
 11
0.5343739559184257
 21
0.5343739559169904
 31
0.0
210
0.0
220
0.0
230
1.0
 40
0.9924325091
 41
5.501585242056734
 42
7.064785372305139
  0
LINE
  5
AB
330
1F
100
AcDbEntity
  8
0
  6
Continuous
 62
     7
370
    25
100
AcDbLine
 10
102.8393768055
 20
83.8246039203
 30
0.0
 11
102.9919201032
 21
83.977147218
 31
0.0
  0
LINE
  5
AC
330
1F
100
AcDbEntity
  8
0
  6
Continuous
 62
     7
370
    25
100
AcDbLine
 10
27.4126253513
 20
83.977147218
 30
0.0
 11
27.4126253513
 21
38.5864891456
 31
0.0
  0
LINE
  5
AD
330
1F
100
AcDbEntity
  8
0
  6
Continuous
 62
     7
370
    25
100
AcDbLine
 10
102.2447740796
 20
84.7242932416
 30
0.0
 11
28.1597713749
 21
84.7242932416
 31
0.0
  0
LINE
  5
AE
330
1F
100
AcDbEntity
  8
0
  6
Continuous
 62
     7
370
    25
100
AcDbLine
 10
102.9919201032
 20
38.5864891456
 30
0.0
 11
102.9919201032
 21
83.977147218
 31
0.0
  0
LINE
  5
AF
330
1F
100
AcDbEntity
  8
0
  6
Continuous
 62
     7
370
    25
100
AcDbLine
 10
28.1597713749
 20
37.8393431221
 30
0.0
 11
102.2447740796
 21
37.8393431221
 31
0.0
  0
LINE
  5
B0
330
1F
100
AcDbEntity
  8
0
  6
Continuous
 62
     7
370
    25
100
AcDbLine
 10
65.4567633973
 20
49.84100073
 30
0.0
 11
64.9567611903
 21
49.84100073
 31
0.0
  0
LINE
  5
B1
330
1F
100
AcDbEntity
  8
0
  6
Continuous
 62
     7
370
    25
100
AcDbLine
 10
64.9567611603
 20
48.84100073
 30
0.0
 11
65.456763348
 21
48.84100073
 31
0.0
  0
LINE
  5
B2
330
1F
100
AcDbEntity
  8
0
  6
Continuous
 62
     7
370
    25
100
AcDbLine
 10
65.4567645252
 20
72.7226356336
 30
0.0
 11
64.9567618782
 21
72.7226356336
 31
0.0
  0
LINE
  5
B3
330
1F
100
AcDbEntity
  8
0
  6
Continuous
 62
     7
370
    25
100
AcDbLine
 10
64.9567619083
 20
73.7226356336
 30
0.0
 11
65.4567645745
 21
73.7226356336
 31
0.0
  0
LINE
  5
B4
330
1F
100
AcDbEntity
  8
0
  6
Continuous
 62
     7
370
    25
100
AcDbLine
 10
65.4567645208
 20
72.6344721432
 30
0.0
 11
64.9567618756
 21
72.6344721432
 31
0.0
  0
LINE
  5
B5
330
1F
100
AcDbEntity
  8
0
  6
Continuous
 62
     7
370
    25
100
AcDbLine
 10
64.956761193
 20
49.9291642204
 30
0.0
 11
65.4567634017
 21
49.9291642204
 31
0.0
  0
ARC
  5
B6
330
1F
100
AcDbEntity
  8
0
  6
Continuous
 62
     7
370
    25
100
AcDbCircle
 10
49.9567628954
 20
61.2818181818
 30
0.0
 40
6.850000000000001
100
AcDbArc
 50
90.0
 51
270.0
  0
ARC
  5
B7
330
1F
100
AcDbEntity
  8
0
  6
Continuous
 62
     7
370
    25
100
AcDbCircle
 10
49.9567628954
 20
61.2818181818
 30
0.0
 40
6.850000000000001
100
AcDbArc
 50
270.0
 51
90.0
  0
LWPOLYLINE
  5
B8
330
1F
100
AcDbEntity
  8
0
  6
Continuous
 62
     7
370
    25
100
AcDbPolyline
 90
       23
 70
   128
 43
0.0
 10
35.9571053857
 20
73.9810813433
 10
36.0569472543
 20
73.7986627287
 10
36.1417406387
 20
73.6475442733
 10
36.2508445932
 20
73.4492431985
 10
36.3741656791
 20
73.2254114588
 10
36.5560398387
 20
72.8951025924
 10
36.7556131737
 20
72.5316841619
 10
36.9544567906
 20
72.1708357477
 10
37.1562163749
 20
71.805795819
 10
37.3602626505
 20
71.4372171772
 10
37.566023829
 20
71.0656929871
 10
37.6720115966
 20
70.8734295152
 10
37.7854267407
 20
70.6661272244
 10
37.9071765456
 20
70.4423519676
 10
38.0307595178
 20
70.2190186692
 10
38.1319501162
 20
70.0376931219
 10
38.3204645304
 20
69.6949311848
 10
38.5027311076
 20
69.3640524961
 10
38.6803842527
 20
69.0419161046
 10
38.9493282919
 20
68.5543027593
 10
39.223942483
 20
68.0551409839
 10
39.5882569084
 20
67.3919388337
 10
40.0560590609
 20
66.5443448803
  0
ARC
  5
B9
330
1F
100
AcDbEntity
  8
0
  6
Continuous
 62
     7
370
    25
100
AcDbCircle
 10
36.2556342975
 20
73.9829709747
 30
0.0
 40
0.298672940208829
100
AcDbArc
 50
89.7303459344
 51
180.3622458585
  0
LWPOLYLINE
  5
BA
330
1F
100
AcDbEntity
  8
0
  6
Continuous
 62
     7
370
    25
100
AcDbPolyline
 90
       20
 70
   128
 43
0.0
 10
36.2570399914
 20
74.2815882198
 10
36.3833091936
 20
74.224708259
 10
36.5924578294
 20
74.1346238475
 10
36.8728273943
 20
74.0121994206
 10
37.1745717844
 20
73.8798798176
 10
37.4936507706
 20
73.7403328116
 10
37.9660048662
 20
73.5327409514
 10
38.5085251922
 20
73.2961009845
 10
39.0666213129
 20
73.0511044134
 10
39.5811059133
 20
72.8261940228
 10
40.0370581354
 20
72.624922704
 10
40.6238662442
 20
72.3701358855
 10
41.2272933343
 20
72.1051784157
 10
41.7118081904
 20
71.8920470929
 10
42.1174377316
 20
71.7153354744
 10
42.5679270636
 20
71.5186735047
 10
43.0299651573
 20
71.3167003991
 10
43.5036117459
 20
71.1091587917
 10
43.9888121724
 20
70.8962841774
 10
44.4855835193
 20
70.6780029543
  0
LWPOLYLINE
  5
BB
330
1F
100
AcDbEntity
  8
0
  6
Continuous
 62
     7
370
    25
100
AcDbPolyline
 90
       10
 70
   128
 43
0.0
 10
49.9567628862
 20
68.2818326864
 10
49.177965716
 20
68.6253354612
 10
48.5459075551
 20
68.9009050754
 10
48.0354694599
 20
69.1230737491
 10
47.4745296338
 20
69.3684126682
 10
46.9236892536
 20
69.6099425389
 10
46.2058630019
 20
69.9247390393
 10
45.5187348317
 20
70.2243967556
 10
44.9469760642
 20
70.4737383379
 10
44.4855835644
 20
70.6779539631
  0
ARC
  5
BC
330
1F
100
AcDbEntity
  8
0
  6
Continuous
 62
     7
370
    25
100
AcDbCircle
 10
49.9567628954
 20
61.2818181818
 30
0.0
 40
7.000000000000121
100
AcDbArc
 50
90.0
 51
179.9999931565
  0
LWPOLYLINE
  5
BD
330
1F
100
AcDbEntity
  8
0
  6
Continuous
 62
     7
370
    25
100
AcDbPolyline
 90
       10
 70
   128
 43
0.0
 10
40.0560590609
 20
66.5443448803
 10
40.3313149854
 20
66.0378299839
 10
40.543319268
 20
65.6578070755
 10
40.7313579026
 20
65.3195923798
 10
40.9408065692
 20
64.9385403723
 10
41.1810562864
 20
64.5028703478
 10
41.4106529423
 20
64.087438955
 10
41.6277527524
 20
63.6941589083
 10
42.3131321533
 20
62.452595389
 10
42.9567762915
 20
61.2818189994
  0
LWPOLYLINE
  5
BE
330
1F
100
AcDbEntity
  8
0
  6
Continuous
 62
     7
370
    25
100
AcDbPolyline
 90
       13
 70
   128
 43
0.0
 10
55.4279422714
 20
70.6780029543
 10
57.4767818831
 20
71.5753477218
 10
59.282278397
 20
72.3657415569
 10
59.7149701055
 20
72.5552304899
 10
60.1309867161
 20
72.7374556208
 10
60.5303223783
 20
72.9123917425
 10
60.9129740678
 20
73.0800258238
 10
61.2789407436
 20
73.2403533801
 10
61.6282190199
 20
73.3933598235
 10
62.3118949737
 20
73.6927894574
 10
62.9133657258
 20
73.9562404855
 10
63.3358953975
 20
74.1401632289
 10
63.6564802557
 20
74.2815882246
  0
ARC
  5
BF
330
1F
100
AcDbEntity
  8
0
  6
Continuous
 62
     7
370
    25
100
AcDbCircle
 10
63.657839322
 20
73.9829232403
 30
0.0
 40
0.2987204768604706
100
AcDbArc
 50
359.6534331009
 51
90.2606676996
  0
LWPOLYLINE
  5
C0
330
1F
100
AcDbEntity
  8
0
  6
Continuous
 62
     7
370
    25
100
AcDbPolyline
 90
       12
 70
   128
 43
0.0
 10
63.956594403
 20
73.9811165093
 10
63.9365421191
 20
73.9472083444
 10
63.8336884791
 20
73.7590697523
 10
63.661007167
 20
73.4443297604
 10
63.4733620954
 20
73.1037555956
 10
63.2747481339
 20
72.7446398572
 10
63.0665891968
 20
72.3672187056
 10
62.8481904661
 20
71.9710999539
 10
62.6203445339
 20
71.5564742153
 10
61.7964032559
 20
70.0610198788
 10
60.8741020848
 20
68.3900087807
 10
59.8571972841
 20
66.5443442776
  0
LWPOLYLINE
  5
C1
330
1F
100
AcDbEntity
  8
0
  6
Continuous
 62
     7
370
    25
100
AcDbPolyline
 90
        6
 70
   128
 43
0.0
 10
56.956750226
 20
61.281843136
 10
57.3945851563
 20
62.0805157315
 10
57.8800789663
 20
62.9582415268
 10
58.4028336209
 20
63.9042337572
 10
59.1783503158
 20
65.3106773985
 10
59.8574667299
 20
66.5443448803
  0
ARC
  5
C2
330
1F
100
AcDbEntity
  8
0
  6
Continuous
 62
     7
370
    25
100
AcDbCircle
 10
49.9567628954
 20
61.2818181818
 30
0.0
 40
7.000000000000011
100
AcDbArc
 50
0.0002035273
 51
90.0
  0
LWPOLYLINE
  5
C3
330
1F
100
AcDbEntity
  8
0
  6
Continuous
 62
     7
370
    25
100
AcDbPolyline
 90
       10
 70
   128
 43
0.0
 10
55.4279422263
 20
70.6779539631
 10
55.0352807966
 20
70.5067078954
 10
54.6178132066
 20
70.3240901227
 10
54.175802361
 20
70.1303733784
 10
53.7096031638
 20
69.9259258347
 10
53.219328346
 20
69.7108644369
 10
52.7050469046
 20
69.4852607614
 10
51.9284118577
 20
69.1460264593
 10
51.0147674543
 20
68.7474256338
 10
49.9567629046
 20
68.2818326864
  0
LWPOLYLINE
  5
C4
330
1F
100
AcDbEntity
  8
0
  6
Continuous
 62
     7
370
    25
100
AcDbPolyline
 90
       13
 70
   128
 43
0.0
 10
44.4855835193
 20
51.8856334093
 10
42.4367439431
 20
50.9882886574
 10
40.6312474556
 20
50.1978948338
 10
40.1985557525
 20
50.0084059033
 10
39.7825391467
 20
49.8261807744
 10
39.3832034887
 20
49.6512446546
 10
39.0005518028
 20
49.4836105748
 10
38.6345851299
 20
49.3232830197
 10
38.2853068558
 20
49.1702765774
 10
37.601630878
 20
48.8708469331
 10
37.0001601138
 20
48.6073958996
 10
36.5776303961
 20
48.4234731375
 10
36.2570455266
 20
48.2820481391
  0
ARC
  5
C5
330
1F
100
AcDbEntity
  8
0
  6
Continuous
 62
     7
370
    25
100
AcDbCircle
 10
36.2556864667
 20
48.5807131203
 30
0.0
 40
0.2987204736297333
100
AcDbArc
 50
179.6534354541
 51
270.2606664646
  0
LWPOLYLINE
  5
C6
330
1F
100
AcDbEntity
  8
0
  6
Continuous
 62
     7
370
    25
100
AcDbPolyline
 90
       12
 70
   128
 43
0.0
 10
35.956931388
 20
48.5825198391
 10
35.9769837747
 20
48.6164282007
 10
36.0798375222
 20
48.8045669949
 10
36.252518793
 20
49.1193069103
 10
36.440163802
 20
49.4598809618
 10
36.6387777086
 20
49.8189966009
 10
36.8469365735
 20
50.1964176196
 10
37.0653352084
 20
50.5925361963
 10
37.2931810194
 20
51.0071617174
 10
38.1171223779
 20
52.5026162096
 10
39.0394236311
 20
54.1736274521
 10
40.0563285066
 20
56.019292086
  0
ARC
  5
C7
330
1F
100
AcDbEntity
  8
0
  6
Continuous
 62
     7
370
    25
100
AcDbCircle
 10
299.1801766121
 20
-83.3798103623
 30
0.0
 40
294.2404083263909
100
AcDbArc
 50
150.5512837547
 51
151.7214073238
  0
ARC
  5
C8
330
1F
100
AcDbEntity
  8
0
  6
Continuous
 62
     7
370
    25
100
AcDbCircle
 10
49.9567628954
 20
61.2818181818
 30
0.0
 40
7.000000000000101
100
AcDbArc
 50
179.9999931565
 51
270.0000113184
  0
LWPOLYLINE
  5
C9
330
1F
100
AcDbEntity
  8
0
  6
Continuous
 62
     7
370
    25
100
AcDbPolyline
 90
       10
 70
   128
 43
0.0
 10
44.4855835644
 20
51.8856824005
 10
44.8802864112
 20
52.0577401158
 10
45.2991297102
 20
52.2409443847
 10
45.7418139786
 20
52.4349845283
 10
46.2079302309
 20
52.6394362712
 10
46.6973317379
 20
52.8541473989
 10
47.2099118778
 20
53.0790073032
 10
47.9866237654
 20
53.4182638951
 10
48.8998039893
 20
53.8166680712
 10
49.9567642697
 20
54.2818048996
  0
LWPOLYLINE
  5
CA
330
1F
100
AcDbEntity
  8
0
  6
Continuous
 62
     7
370
    25
100
AcDbPolyline
 90
       23
 70
   128
 43
0.0
 10
63.9564204047
 20
48.5825550061
 10
63.8565785321
 20
48.7649736385
 10
63.7717851402
 20
48.9160921122
 10
63.6626811762
 20
49.1143932044
 10
63.5393600786
 20
49.3382249645
 10
63.3574858769
 20
49.668533908
 10
63.1579124647
 20
50.0319524787
 10
62.959068797
 20
50.3928009822
 10
62.7573092022
 20
50.7578409271
 10
62.55326296
 20
51.1264195079
 10
62.3475018623
 20
51.4979435565
 10
62.2415140995
 20
51.6902070223
 10
62.1280989599
 20
51.8975093044
 10
62.0063491593
 20
52.1212845505
 10
61.8827661908
 20
52.3446178422
 10
61.7815755874
 20
52.5259434
 10
61.5930611877
 20
52.8687053104
 10
61.4107946257
 20
53.1995839715
 10
61.2331414884
 20
53.5217203491
 10
60.9641974458
 20
54.009333701
 10
60.6895832658
 20
54.5084954558
 10
60.3252688614
 20
55.1716975676
 10
59.8574667299
 20
56.0192914834
  0
ARC
  5
CB
330
1F
100
AcDbEntity
  8
0
  6
Continuous
 62
     7
370
    25
100
AcDbCircle
 10
63.6578914952
 20
48.580665386
 30
0.0
 40
0.2986729370512594
100
AcDbArc
 50
269.7303470796
 51
0.3622436753
  0
LWPOLYLINE
  5
CC
330
1F
100
AcDbEntity
  8
0
  6
Continuous
 62
     7
370
    25
100
AcDbPolyline
 90
       20
 70
   128
 43
0.0
 10
63.6564858073
 20
48.2820481438
 10
63.5302165013
 20
48.338928153
 10
63.3210674712
 20
48.4290127296
 10
63.0406971592
 20
48.5514374866
 10
62.7389517796
 20
48.6837575255
 10
62.4198716561
 20
48.8233050274
 10
61.9475170335
 20
49.0308971263
 10
61.4049941256
 20
49.2675382009
 10
60.8469001954
 20
49.5125338223
 10
60.3324159955
 20
49.7374440529
 10
59.8764646557
 20
49.9387149672
 10
59.2896577701
 20
50.1935012473
 10
58.6862317193
 20
50.4584582727
 10
58.2017185638
 20
50.6715888524
 10
57.7960889093
 20
50.8483005113
 10
57.3455992945
 20
51.0449626003
 10
56.8835609739
 20
51.2469358053
 10
56.4099142149
 20
51.4544774901
 10
55.9247136748
 20
51.6673521581
 10
55.4279422714
 20
51.8856334093
  0
LWPOLYLINE
  5
CD
330
1F
100
AcDbEntity
  8
0
  6
Continuous
 62
     7
370
    25
100
AcDbPolyline
 90
       10
 70
   128
 43
0.0
 10
49.9567642866
 20
54.2818048997
 10
50.7352323488
 20
53.9384246167
 10
51.3666467273
 20
53.6631316517
 10
51.8762803265
 20
53.4413203826
 10
52.4370091904
 20
53.196087074
 10
52.9874106786
 20
52.954759043
 10
53.7050139153
 20
52.6400565517
 10
54.3928239151
 20
52.3400884964
 10
54.9654723279
 20
52.0903535674
 10
55.4279422263
 20
51.8856824005
  0
ARC
  5
CE
330
1F
100
AcDbEntity
  8
0
  6
Continuous
 62
     7
370
    25
100
AcDbCircle
 10
49.9567628954
 20
61.2818181818
 30
0.0
 40
6.999999999999982
100
AcDbArc
 50
270.0000113184
 51
0.0002035273
  0
LWPOLYLINE
  5
CF
330
1F
100
AcDbEntity
  8
0
  6
Continuous
 62
     7
370
    25
100
AcDbPolyline
 90
       12
 70
   128
 43
0.0
 10
59.8574667299
 20
56.0192914834
 10
59.5710306152
 20
56.5439620127
 10
59.322090373
 20
56.9926973046
 10
59.1218702069
 20
57.3538535399
 10
58.8635685194
 20
57.8227342861
 10
58.5852720196
 20
58.3278427802
 10
58.2859447878
 20
58.8702536699
 10
58.0261317159
 20
59.3412772596
 10
57.7418111517
 20
59.8573212496
 10
57.4311570075
 20
60.4202799953
 10
57.141463256
 20
60.9438606904
 10
56.9567502234
 20
61.2818429586
  0
LWPOLYLINE
  5
D0
330
1F
100
AcDbEntity
  8
0
  6
Continuous
 62
     7
370
    25
100
AcDbPolyline
 90
        9
 70
   128
 43
0.0
 10
49.9567628947
 20
74.2816560324
 10
49.9569958667
 20
74.0826814521
 10
49.9569829696
 20
73.8521600749
 10
49.9568074627
 20
73.5904506315
 10
49.9564466276
 20
73.297455238
 10
49.9558660171
 20
72.9730254749
 10
49.9540371211
 20
72.2688581058
 10
49.953594527
 20
71.5005183851
 10
49.9567628954
 20
70.6775914745
  0
LINE
  5
D1
330
1F
100
AcDbEntity
  8
0
  6
Continuous
 62
     7
370
    25
100
AcDbLine
 10
49.9567628948
 20
74.2816552341
 30
0.0
 11
63.656480295
 21
74.2816406257
 31
0.0
  0
LWPOLYLINE
  5
D2
330
1F
100
AcDbEntity
  8
0
  6
Continuous
 62
     7
370
    25
100
AcDbPolyline
 90
        5
 70
   128
 43
0.0
 10
49.9567628953
 20
70.4669377656
 10
49.9563321767
 20
69.9986733412
 10
49.9557948413
 20
69.4767024009
 10
49.9561421537
 20
68.9052959032
 10
49.9567629024
 20
68.2818203846
  0
LWPOLYLINE
  5
D3
330
1F
100
AcDbEntity
  8
0
  6
Continuous
 62
     7
370
    25
100
AcDbPolyline
 90
        3
 70
   128
 43
0.0
 10
49.9567628954
 20
70.6775914745
 10
49.9562408411
 20
70.5600945789
 10
49.9567628953
 20
70.4669377656
  0
LWPOLYLINE
  5
D4
330
1F
100
AcDbEntity
  8
0
  6
Continuous
 62
     7
370
    25
100
AcDbPolyline
 90
        9
 70
   128
 43
0.0
 10
49.9567716934
 20
48.2819803331
 10
49.9565288817
 20
48.4809991685
 10
49.956536849
 20
48.7115575608
 10
49.9567108118
 20
48.9732902126
 10
49.9570721539
 20
49.2662892583
 10
49.9576540263
 20
49.5906975315
 10
49.9594853506
 20
50.2948503021
 10
49.9599299259
 20
51.0631614234
 10
49.9567628954
 20
51.8860448891
  0
LINE
  5
D5
330
1F
100
AcDbEntity
  8
0
  6
Continuous
 62
     7
370
    25
100
AcDbLine
 10
49.9567716932
 20
48.28198113
 30
0.0
 11
36.2570454873
 21
48.2819957381
 31
0.0
  0
LWPOLYLINE
  5
D6
330
1F
100
AcDbEntity
  8
0
  6
Continuous
 62
     7
370
    25
100
AcDbPolyline
 90
        5
 70
   128
 43
0.0
 10
49.9567628955
 20
52.096698598
 10
49.9571912113
 20
52.5649559315
 10
49.9577276291
 20
53.0869232141
 10
49.957381381
 20
53.6583316286
 10
49.9567642751
 20
54.2818172081
  0
LWPOLYLINE
  5
D7
330
1F
100
AcDbEntity
  8
0
  6
Continuous
 62
     7
370
    25
100
AcDbPolyline
 90
        3
 70
   128
 43
0.0
 10
49.9567628954
 20
51.8860448891
 10
49.9572849497
 20
52.0035417847
 10
49.9567628955
 20
52.096698598
  0
LINE
  5
D8
330
1F
100
AcDbEntity
  8
0
  6
Continuous
 62
     7
370
    25
100
AcDbLine
 10
36.2570399521
 20
74.2816406071
 30
0.0
 11
49.9567628948
 21
74.2816552341
 31
0.0
  0
LINE
  5
D9
330
1F
100
AcDbEntity
  8
0
  6
Continuous
 62
     7
370
    25
100
AcDbLine
 10
63.6564858465
 20
48.2819957567
 30
0.0
 11
49.9567716932
 21
48.28198113
 31
0.0
  0
LINE
  5
DA
330
1F
100
AcDbEntity
  8
0
  6
Continuous
 62
     7
370
    25
100
AcDbLine
 10
35.9569714577
 20
48.5825199776
 30
0.0
 11
35.9569107101
 21
61.2818103191
 31
0.0
  0
LWPOLYLINE
  5
DB
330
1F
100
AcDbEntity
  8
0
  6
Continuous
 62
     7
370
    25
100
AcDbPolyline
 90
        7
 70
   128
 43
0.0
 10
40.0561905983
 20
61.2818181816
 10
38.8010163071
 20
61.2844224535
 10
37.6381474352
 20
61.2822191516
 10
37.1428152945
 20
61.28164611
 10
36.72335279
 20
61.2806136748
 10
36.3250166968
 20
61.2799367872
 10
35.9569335744
 20
61.2818103248
  0
LWPOLYLINE
  5
DC
330
1F
100
AcDbEntity
  8
0
  6
Continuous
 62
     7
370
    25
100
AcDbPolyline
 90
        5
 70
   128
 43
0.0
 10
42.5031049824
 20
61.2818181817
 10
41.7819614232
 20
61.2823913806
 10
41.1364217382
 20
61.2832222954
 10
40.5603131785
 20
61.2828264205
 10
40.0561905983
 20
61.2818181816
  0
LWPOLYLINE
  5
DD
330
1F
100
AcDbEntity
  8
0
  6
Continuous
 62
     7
370
    25
100
AcDbPolyline
 90
        3
 70
   128
 43
0.0
 10
42.5031049824
 20
61.2818181817
 10
42.6676584719
 20
61.2811199225
 10
42.8380188496
 20
61.2818181818
  0
LWPOLYLINE
  5
DE
330
1F
100
AcDbEntity
  8
0
  6
Continuous
 62
     7
370
    25
100
AcDbPolyline
 90
        3
 70
   128
 43
0.0
 10
42.8380188496
 20
61.2818181818
 10
42.8972857473
 20
61.2818468858
 10
42.9567908553
 20
61.2818183017
  0
LINE
  5
DF
330
1F
100
AcDbEntity
  8
0
  6
Continuous
 62
     7
370
    25
100
AcDbLine
 10
63.9565543342
 20
73.9811163708
 30
0.0
 11
63.956615081
 21
61.2818171127
 31
0.0
  0
LWPOLYLINE
  5
E0
330
1F
100
AcDbEntity
  8
0
  6
Continuous
 62
     7
370
    25
100
AcDbPolyline
 90
        7
 70
   128
 43
0.0
 10
59.8573351256
 20
61.2818181816
 10
61.1152555706
 20
61.2791727409
 10
62.2810799267
 20
61.2814139238
 10
62.7764666619
 20
61.2819877225
 10
63.1940550036
 20
61.2829984752
 10
63.5904206615
 20
61.2836607923
 10
63.9565922187
 20
61.281817107
  0
LWPOLYLINE
  5
E1
330
1F
100
AcDbEntity
  8
0
  6
Continuous
 62
     7
370
    25
100
AcDbPolyline
 90
        5
 70
   128
 43
0.0
 10
57.4104208083
 20
61.2818181819
 10
58.1315643554
 20
61.2812449829
 10
58.7771040232
 20
61.2804140675
 10
59.3532125635
 20
61.280809942
 10
59.8573351256
 20
61.2818181816
  0
LWPOLYLINE
  5
E2
330
1F
100
AcDbEntity
  8
0
  6
Continuous
 62
     7
370
    25
100
AcDbPolyline
 90
        3
 70
   128
 43
0.0
 10
57.4104208083
 20
61.2818181819
 10
57.245867301
 20
61.2825164412
 10
57.0755069044
 20
61.2818181819
  0
LWPOLYLINE
  5
E3
330
1F
100
AcDbEntity
  8
0
  6
Continuous
 62
     7
370
    25
100
AcDbPolyline
 90
        3
 70
   128
 43
0.0
 10
57.0755069044
 20
61.2818181819
 10
57.0162393463
 20
61.2818028611
 10
56.9567337005
 20
61.2818447989
  0
LINE
  5
E4
330
1F
100
AcDbEntity
  8
0
  6
Continuous
 62
     7
370
    25
100
AcDbLine
 10
35.9569107101
 20
61.2818103191
 30
0.0
 11
35.9569673267
 21
73.9810826626
 31
0.0
  0
LINE
  5
E5
330
1F
100
AcDbEntity
  8
0
  6
Continuous
 62
     7
370
    25
100
AcDbLine
 10
63.956615081
 20
61.2818171127
 30
0.0
 11
63.9565584629
 21
48.5825536867
 31
0.0
  0
LINE
  5
E6
330
1F
100
AcDbEntity
  8
0
  6
Continuous
 62
     7
370
    25
100
AcDbLine
 10
35.0510968981
 20
46.3761521845
 30
0.0
 11
64.8624288926
 21
46.3761521845
 31
0.0
  0
LINE
  5
E7
330
1F
100
AcDbEntity
  8
0
  6
Continuous
 62
     7
370
    25
100
AcDbLine
 10
35.0510968981
 20
76.1874841791
 30
0.0
 11
35.0510968981
 21
46.3761521845
 31
0.0
  0
LINE
  5
E8
330
1F
100
AcDbEntity
  8
0
  6
Continuous
 62
     7
370
    25
100
AcDbLine
 10
35.0510968981
 20
76.1874841791
 30
0.0
 11
64.8624288926
 21
76.1874841791
 31
0.0
  0
LINE
  5
E9
330
1F
100
AcDbEntity
  8
0
  6
Continuous
 62
     7
370
    25
100
AcDbLine
 10
64.8624288926
 20
76.1874841791
 30
0.0
 11
64.8624288926
 21
46.3761521845
 31
0.0
  0
LINE
  5
EA
330
1F
100
AcDbEntity
  8
0
  6
Continuous
 62
     7
370
    25
100
AcDbLine
 10
34.956777708
 20
76.2818178391
 30
0.0
 11
35.0510968981
 21
76.1874841791
 31
0.0
  0
LINE
  5
EB
330
1F
100
AcDbEntity
  8
0
  6
Continuous
 62
     7
370
    25
100
AcDbLine
 10
34.956777708
 20
76.2818178319
 30
0.0
 11
64.9567365134
 21
76.281818184
 31
0.0
  0
LINE
  5
EC
330
1F
100
AcDbEntity
  8
0
  6
Continuous
 62
     7
370
    25
100
AcDbLine
 10
64.8624288926
 20
76.1874841791
 30
0.0
 11
64.9567365134
 21
76.2818181773
 31
0.0
  0
LINE
  5
ED
330
1F
100
AcDbEntity
  8
0
  6
Continuous
 62
     7
370
    25
100
AcDbLine
 10
35.0510968981
 20
46.3761521845
 30
0.0
 11
34.9567902125
 21
46.2818181013
 31
0.0
  0
LINE
  5
EE
330
1F
100
AcDbEntity
  8
0
  6
Continuous
 62
     7
370
    25
100
AcDbLine
 10
34.9567902125
 20
46.2818180942
 30
0.0
 11
34.9568423955
 21
47.682087827
 31
0.0
  0
LINE
  5
EF
330
1F
100
AcDbEntity
  8
0
  6
Continuous
 62
     7
370
    25
100
AcDbLine
 10
34.9568250638
 20
74.8816530329
 30
0.0
 11
34.956777708
 21
76.2818178319
 31
0.0
  0
LINE
  5
F0
330
1F
100
AcDbEntity
  8
0
  6
Continuous
 62
     7
370
    25
100
AcDbLine
 10
34.9567646316
 20
74.8816530329
 30
0.0
 11
34.9567632909
 21
47.682087827
 31
0.0
  0
LINE
  5
F1
330
1F
100
AcDbEntity
  8
0
  6
Continuous
 62
     7
370
    25
100
AcDbLine
 10
64.8624288926
 20
46.3761521845
 30
0.0
 11
64.9567625128
 21
46.2818185643
 31
0.0
  0
LINE
  5
F2
330
1F
100
AcDbEntity
  8
0
  6
Continuous
 62
     7
370
    25
100
AcDbLine
 10
64.9567480693
 20
46.2818185318
 30
0.0
 11
34.9567902125
 21
46.2818180942
 31
0.0
  0
LINE
  5
F3
330
1F
100
AcDbEntity
  8
0
  6
Continuous
 62
     7
370
    25
100
AcDbLine
 10
64.9567365134
 20
76.281818184
 30
0.0
 11
64.9566854227
 21
74.8813479362
 31
0.0
  0
LINE
  5
F4
330
1F
100
AcDbEntity
  8
0
  6
Continuous
 62
     7
370
    25
100
AcDbLine
 10
64.9567611254
 20
47.6819490503
 30
0.0
 11
64.9567619431
 21
74.8813479362
 31
0.0
  0
LINE
  5
F5
330
1F
100
AcDbEntity
  8
0
  6
Continuous
 62
     7
370
    25
100
AcDbLine
 10
64.9567006407
 20
47.6819490503
 30
0.0
 11
64.9567480693
 21
46.2818185318
 31
0.0
  0
ARC
  5
F6
330
1F
100
AcDbEntity
  8
0
  6
Continuous
 62
     7
370
    25
100
AcDbCircle
 10
80.4567628954
 20
61.2818181818
 30
0.0
 40
6.850000000000001
100
AcDbArc
 50
90.0
 51
270.0
  0
ARC
  5
F7
330
1F
100
AcDbEntity
  8
0
  6
Continuous
 62
     7
370
    25
100
AcDbCircle
 10
80.4567628954
 20
61.2818181818
 30
0.0
 40
6.850000000000001
100
AcDbArc
 50
270.0
 51
90.0
  0
LWPOLYLINE
  5
F8
330
1F
100
AcDbEntity
  8
0
  6
Continuous
 62
     7
370
    25
100
AcDbPolyline
 90
       23
 70
   128
 43
0.0
 10
66.4571053857
 20
73.9810813433
 10
66.5569472543
 20
73.7986627287
 10
66.6417406387
 20
73.6475442733
 10
66.7508445932
 20
73.4492431985
 10
66.8741656791
 20
73.2254114588
 10
67.0560398387
 20
72.8951025924
 10
67.2556131737
 20
72.5316841619
 10
67.4544567906
 20
72.1708357477
 10
67.6562163749
 20
71.805795819
 10
67.8602626505
 20
71.4372171772
 10
68.066023829
 20
71.0656929871
 10
68.1720115966
 20
70.8734295152
 10
68.2854267407
 20
70.6661272244
 10
68.4071765456
 20
70.4423519676
 10
68.5307595178
 20
70.2190186692
 10
68.6319501162
 20
70.0376931219
 10
68.8204645304
 20
69.6949311848
 10
69.0027311076
 20
69.3640524961
 10
69.1803842527
 20
69.0419161046
 10
69.4493282919
 20
68.5543027593
 10
69.723942483
 20
68.0551409839
 10
70.0882569084
 20
67.3919388337
 10
70.5560590609
 20
66.5443448803
  0
ARC
  5
F9
330
1F
100
AcDbEntity
  8
0
  6
Continuous
 62
     7
370
    25
100
AcDbCircle
 10
66.7556342975
 20
73.9829709747
 30
0.0
 40
0.2986729402087975
100
AcDbArc
 50
89.7303459344
 51
180.3622458585
  0
LWPOLYLINE
  5
FA
330
1F
100
AcDbEntity
  8
0
  6
Continuous
 62
     7
370
    25
100
AcDbPolyline
 90
       20
 70
   128
 43
0.0
 10
66.7570399914
 20
74.2815882198
 10
66.8833091936
 20
74.224708259
 10
67.0924578294
 20
74.1346238475
 10
67.3728273943
 20
74.0121994206
 10
67.6745717844
 20
73.8798798176
 10
67.9936507706
 20
73.7403328116
 10
68.4660048662
 20
73.5327409514
 10
69.0085251922
 20
73.2961009845
 10
69.5666213129
 20
73.0511044134
 10
70.0811059133
 20
72.8261940228
 10
70.5370581354
 20
72.624922704
 10
71.1238662442
 20
72.3701358855
 10
71.7272933343
 20
72.1051784157
 10
72.2118081904
 20
71.8920470929
 10
72.6174377316
 20
71.7153354744
 10
73.0679270636
 20
71.5186735047
 10
73.5299651573
 20
71.3167003991
 10
74.0036117459
 20
71.1091587917
 10
74.4888121724
 20
70.8962841774
 10
74.9855835193
 20
70.6780029543
  0
LWPOLYLINE
  5
FB
330
1F
100
AcDbEntity
  8
0
  6
Continuous
 62
     7
370
    25
100
AcDbPolyline
 90
       10
 70
   128
 43
0.0
 10
80.4567628862
 20
68.2818326864
 10
79.677965716
 20
68.6253354612
 10
79.0459075551
 20
68.9009050754
 10
78.5354694599
 20
69.1230737491
 10
77.9745296338
 20
69.3684126682
 10
77.4236892536
 20
69.6099425389
 10
76.7058630019
 20
69.9247390393
 10
76.0187348317
 20
70.2243967556
 10
75.4469760642
 20
70.4737383379
 10
74.9855835644
 20
70.6779539631
  0
ARC
  5
FC
330
1F
100
AcDbEntity
  8
0
  6
Continuous
 62
     7
370
    25
100
AcDbCircle
 10
80.4567628954
 20
61.2818181818
 30
0.0
 40
7.000000000000114
100
AcDbArc
 50
90.0
 51
179.9999931565
  0
LWPOLYLINE
  5
FD
330
1F
100
AcDbEntity
  8
0
  6
Continuous
 62
     7
370
    25
100
AcDbPolyline
 90
       10
 70
   128
 43
0.0
 10
70.5560590609
 20
66.5443448803
 10
70.8313149854
 20
66.0378299839
 10
71.043319268
 20
65.6578070755
 10
71.2313579026
 20
65.3195923798
 10
71.4408065692
 20
64.9385403723
 10
71.6810562864
 20
64.5028703478
 10
71.9106529423
 20
64.087438955
 10
72.1277527524
 20
63.6941589083
 10
72.8131321533
 20
62.452595389
 10
73.4567762915
 20
61.2818189994
  0
LWPOLYLINE
  5
FE
330
1F
100
AcDbEntity
  8
0
  6
Continuous
 62
     7
370
    25
100
AcDbPolyline
 90
       13
 70
   128
 43
0.0
 10
85.9279422714
 20
70.6780029543
 10
87.9767818831
 20
71.5753477218
 10
89.782278397
 20
72.3657415569
 10
90.2149701055
 20
72.5552304899
 10
90.6309867161
 20
72.7374556208
 10
91.0303223783
 20
72.9123917425
 10
91.4129740678
 20
73.0800258238
 10
91.7789407436
 20
73.2403533801
 10
92.1282190199
 20
73.3933598235
 10
92.8118949737
 20
73.6927894574
 10
93.4133657258
 20
73.9562404855
 10
93.8358953975
 20
74.1401632289
 10
94.1564802557
 20
74.2815882246
  0
ARC
  5
FF
330
1F
100
AcDbEntity
  8
0
  6
Continuous
 62
     7
370
    25
100
AcDbCircle
 10
94.157839322
 20
73.9829232403
 30
0.0
 40
0.2987204768604571
100
AcDbArc
 50
359.6534331009
 51
90.2606676996
  0
LWPOLYLINE
  5
100
330
1F
100
AcDbEntity
  8
0
  6
Continuous
 62
     7
370
    25
100
AcDbPolyline
 90
       12
 70
   128
 43
0.0
 10
94.456594403
 20
73.9811165093
 10
94.4365421191
 20
73.9472083444
 10
94.3336884791
 20
73.7590697523
 10
94.161007167
 20
73.4443297604
 10
93.9733620954
 20
73.1037555956
 10
93.7747481339
 20
72.7446398572
 10
93.5665891968
 20
72.3672187056
 10
93.3481904661
 20
71.9710999539
 10
93.1203445339
 20
71.5564742153
 10
92.2964032559
 20
70.0610198788
 10
91.3741020848
 20
68.3900087807
 10
90.3571972841
 20
66.5443442776
  0
LWPOLYLINE
  5
101
330
1F
100
AcDbEntity
  8
0
  6
Continuous
 62
     7
370
    25
100
AcDbPolyline
 90
        6
 70
   128
 43
0.0
 10
87.456750226
 20
61.281843136
 10
87.8945851563
 20
62.0805157315
 10
88.3800789663
 20
62.9582415268
 10
88.9028336209
 20
63.9042337572
 10
89.6783503158
 20
65.3106773985
 10
90.3574667299
 20
66.5443448803
  0
ARC
  5
102
330
1F
100
AcDbEntity
  8
0
  6
Continuous
 62
     7
370
    25
100
AcDbCircle
 10
80.4567628954
 20
61.2818181818
 30
0.0
 40
7.000000000000021
100
AcDbArc
 50
0.0002035273
 51
90.0
  0
LWPOLYLINE
  5
103
330
1F
100
AcDbEntity
  8
0
  6
Continuous
 62
     7
370
    25
100
AcDbPolyline
 90
       10
 70
   128
 43
0.0
 10
85.9279422263
 20
70.6779539631
 10
85.5352807966
 20
70.5067078954
 10
85.1178132066
 20
70.3240901227
 10
84.675802361
 20
70.1303733784
 10
84.2096031638
 20
69.9259258347
 10
83.719328346
 20
69.7108644369
 10
83.2050469046
 20
69.4852607614
 10
82.4284118577
 20
69.1460264593
 10
81.5147674543
 20
68.7474256338
 10
80.4567629046
 20
68.2818326864
  0
LWPOLYLINE
  5
104
330
1F
100
AcDbEntity
  8
0
  6
Continuous
 62
     7
370
    25
100
AcDbPolyline
 90
       13
 70
   128
 43
0.0
 10
74.9855835193
 20
51.8856334093
 10
72.9367439431
 20
50.9882886574
 10
71.1312474556
 20
50.1978948338
 10
70.6985557525
 20
50.0084059033
 10
70.2825391467
 20
49.8261807744
 10
69.8832034887
 20
49.6512446546
 10
69.5005518028
 20
49.4836105748
 10
69.1345851299
 20
49.3232830197
 10
68.7853068558
 20
49.1702765774
 10
68.101630878
 20
48.8708469331
 10
67.5001601138
 20
48.6073958996
 10
67.0776303961
 20
48.4234731375
 10
66.7570455266
 20
48.2820481391
  0
ARC
  5
105
330
1F
100
AcDbEntity
  8
0
  6
Continuous
 62
     7
370
    25
100
AcDbCircle
 10
66.7556864667
 20
48.5807131203
 30
0.0
 40
0.2987204736297228
100
AcDbArc
 50
179.6534354541
 51
270.2606664646
  0
LWPOLYLINE
  5
106
330
1F
100
AcDbEntity
  8
0
  6
Continuous
 62
     7
370
    25
100
AcDbPolyline
 90
       12
 70
   128
 43
0.0
 10
66.456931388
 20
48.5825198391
 10
66.4769837747
 20
48.6164282007
 10
66.5798375222
 20
48.8045669949
 10
66.752518793
 20
49.1193069103
 10
66.940163802
 20
49.4598809618
 10
67.1387777086
 20
49.8189966009
 10
67.3469365735
 20
50.1964176196
 10
67.5653352084
 20
50.5925361963
 10
67.7931810194
 20
51.0071617174
 10
68.6171223779
 20
52.5026162096
 10
69.5394236311
 20
54.1736274521
 10
70.5563285066
 20
56.019292086
  0
ARC
  5
107
330
1F
100
AcDbEntity
  8
0
  6
Continuous
 62
     7
370
    25
100
AcDbCircle
 10
329.680176614
 20
-83.3798103633
 30
0.0
 40
294.2404083285902
100
AcDbArc
 50
150.5512837547
 51
151.7214073238
  0
ARC
  5
108
330
1F
100
AcDbEntity
  8
0
  6
Continuous
 62
     7
370
    25
100
AcDbCircle
 10
80.4567628954
 20
61.2818181818
 30
0.0
 40
7.000000000000108
100
AcDbArc
 50
179.9999931565
 51
270.0000113184
  0
LWPOLYLINE
  5
109
330
1F
100
AcDbEntity
  8
0
  6
Continuous
 62
     7
370
    25
100
AcDbPolyline
 90
       10
 70
   128
 43
0.0
 10
74.9855835644
 20
51.8856824005
 10
75.3802864112
 20
52.0577401158
 10
75.7991297102
 20
52.2409443847
 10
76.2418139786
 20
52.4349845283
 10
76.7079302309
 20
52.6394362712
 10
77.1973317379
 20
52.8541473989
 10
77.7099118778
 20
53.0790073032
 10
78.4866237654
 20
53.4182638951
 10
79.3998039893
 20
53.8166680712
 10
80.4567642697
 20
54.2818048996
  0
LWPOLYLINE
  5
10A
330
1F
100
AcDbEntity
  8
0
  6
Continuous
 62
     7
370
    25
100
AcDbPolyline
 90
       23
 70
   128
 43
0.0
 10
94.4564204047
 20
48.5825550061
 10
94.3565785321
 20
48.7649736385
 10
94.2717851402
 20
48.9160921122
 10
94.1626811762
 20
49.1143932044
 10
94.0393600786
 20
49.3382249645
 10
93.8574858769
 20
49.668533908
 10
93.6579124647
 20
50.0319524787
 10
93.459068797
 20
50.3928009822
 10
93.2573092022
 20
50.7578409271
 10
93.05326296
 20
51.1264195079
 10
92.8475018623
 20
51.4979435565
 10
92.7415140995
 20
51.6902070223
 10
92.6280989599
 20
51.8975093044
 10
92.5063491593
 20
52.1212845505
 10
92.3827661908
 20
52.3446178422
 10
92.2815755874
 20
52.5259434
 10
92.0930611877
 20
52.8687053104
 10
91.9107946257
 20
53.1995839715
 10
91.7331414884
 20
53.5217203491
 10
91.4641974458
 20
54.009333701
 10
91.1895832658
 20
54.5084954558
 10
90.8252688614
 20
55.1716975676
 10
90.3574667299
 20
56.0192914834
  0
ARC
  5
10B
330
1F
100
AcDbEntity
  8
0
  6
Continuous
 62
     7
370
    25
100
AcDbCircle
 10
94.1578914952
 20
48.580665386
 30
0.0
 40
0.298672937051309
100
AcDbArc
 50
269.7303470796
 51
0.3622436753
  0
LWPOLYLINE
  5
10C
330
1F
100
AcDbEntity
  8
0
  6
Continuous
 62
     7
370
    25
100
AcDbPolyline
 90
       20
 70
   128
 43
0.0
 10
94.1564858073
 20
48.2820481438
 10
94.0302165013
 20
48.338928153
 10
93.8210674712
 20
48.4290127296
 10
93.5406971592
 20
48.5514374866
 10
93.2389517796
 20
48.6837575255
 10
92.9198716561
 20
48.8233050274
 10
92.4475170335
 20
49.0308971263
 10
91.9049941256
 20
49.2675382009
 10
91.3469001954
 20
49.5125338223
 10
90.8324159955
 20
49.7374440529
 10
90.3764646557
 20
49.9387149672
 10
89.7896577701
 20
50.1935012473
 10
89.1862317193
 20
50.4584582727
 10
88.7017185638
 20
50.6715888524
 10
88.2960889093
 20
50.8483005113
 10
87.8455992945
 20
51.0449626003
 10
87.3835609739
 20
51.2469358053
 10
86.9099142149
 20
51.4544774901
 10
86.4247136748
 20
51.6673521581
 10
85.9279422714
 20
51.8856334093
  0
LWPOLYLINE
  5
10D
330
1F
100
AcDbEntity
  8
0
  6
Continuous
 62
     7
370
    25
100
AcDbPolyline
 90
       10
 70
   128
 43
0.0
 10
80.4567642866
 20
54.2818048997
 10
81.2352323488
 20
53.9384246167
 10
81.8666467273
 20
53.6631316517
 10
82.3762803265
 20
53.4413203826
 10
82.9370091904
 20
53.196087074
 10
83.4874106786
 20
52.954759043
 10
84.2050139153
 20
52.6400565517
 10
84.8928239151
 20
52.3400884964
 10
85.4654723279
 20
52.0903535674
 10
85.9279422263
 20
51.8856824005
  0
ARC
  5
10E
330
1F
100
AcDbEntity
  8
0
  6
Continuous
 62
     7
370
    25
100
AcDbCircle
 10
80.4567628954
 20
61.2818181818
 30
0.0
 40
6.999999999999988
100
AcDbArc
 50
270.0000113184
 51
0.0002035273
  0
LWPOLYLINE
  5
10F
330
1F
100
AcDbEntity
  8
0
  6
Continuous
 62
     7
370
    25
100
AcDbPolyline
 90
       12
 70
   128
 43
0.0
 10
90.3574667299
 20
56.0192914834
 10
90.0710306152
 20
56.5439620127
 10
89.822090373
 20
56.9926973046
 10
89.6218702069
 20
57.3538535399
 10
89.3635685194
 20
57.8227342861
 10
89.0852720196
 20
58.3278427802
 10
88.7859447878
 20
58.8702536699
 10
88.5261317159
 20
59.3412772596
 10
88.2418111517
 20
59.8573212496
 10
87.9311570075
 20
60.4202799953
 10
87.641463256
 20
60.9438606904
 10
87.4567502234
 20
61.2818429586
  0
LWPOLYLINE
  5
110
330
1F
100
AcDbEntity
  8
0
  6
Continuous
 62
     7
370
    25
100
AcDbPolyline
 90
        9
 70
   128
 43
0.0
 10
80.4567628947
 20
74.2816560324
 10
80.4569958667
 20
74.0826814521
 10
80.4569829696
 20
73.8521600749
 10
80.4568074627
 20
73.5904506315
 10
80.4564466276
 20
73.297455238
 10
80.4558660171
 20
72.9730254749
 10
80.4540371211
 20
72.2688581058
 10
80.453594527
 20
71.5005183851
 10
80.4567628954
 20
70.6775914745
  0
LINE
  5
111
330
1F
100
AcDbEntity
  8
0
  6
Continuous
 62
     7
370
    25
100
AcDbLine
 10
80.4567628948
 20
74.2816552341
 30
0.0
 11
94.156480295
 21
74.2816406257
 31
0.0
  0
LWPOLYLINE
  5
112
330
1F
100
AcDbEntity
  8
0
  6
Continuous
 62
     7
370
    25
100
AcDbPolyline
 90
        5
 70
   128
 43
0.0
 10
80.4567628953
 20
70.4669377656
 10
80.4563321767
 20
69.9986733412
 10
80.4557948413
 20
69.4767024009
 10
80.4561421537
 20
68.9052959032
 10
80.4567629024
 20
68.2818203846
  0
LWPOLYLINE
  5
113
330
1F
100
AcDbEntity
  8
0
  6
Continuous
 62
     7
370
    25
100
AcDbPolyline
 90
        3
 70
   128
 43
0.0
 10
80.4567628954
 20
70.6775914745
 10
80.4562408411
 20
70.5600945789
 10
80.4567628953
 20
70.4669377656
  0
LWPOLYLINE
  5
114
330
1F
100
AcDbEntity
  8
0
  6
Continuous
 62
     7
370
    25
100
AcDbPolyline
 90
        9
 70
   128
 43
0.0
 10
80.4567716934
 20
48.2819803331
 10
80.4565288817
 20
48.4809991685
 10
80.456536849
 20
48.7115575608
 10
80.4567108118
 20
48.9732902126
 10
80.4570721539
 20
49.2662892583
 10
80.4576540263
 20
49.5906975315
 10
80.4594853506
 20
50.2948503021
 10
80.4599299259
 20
51.0631614234
 10
80.4567628954
 20
51.8860448891
  0
LINE
  5
115
330
1F
100
AcDbEntity
  8
0
  6
Continuous
 62
     7
370
    25
100
AcDbLine
 10
80.4567716932
 20
48.28198113
 30
0.0
 11
66.7570454873
 21
48.2819957381
 31
0.0
  0
LWPOLYLINE
  5
116
330
1F
100
AcDbEntity
  8
0
  6
Continuous
 62
     7
370
    25
100
AcDbPolyline
 90
        5
 70
   128
 43
0.0
 10
80.4567628955
 20
52.096698598
 10
80.4571912113
 20
52.5649559315
 10
80.4577276291
 20
53.0869232141
 10
80.457381381
 20
53.6583316286
 10
80.4567642751
 20
54.2818172081
  0
LWPOLYLINE
  5
117
330
1F
100
AcDbEntity
  8
0
  6
Continuous
 62
     7
370
    25
100
AcDbPolyline
 90
        3
 70
   128
 43
0.0
 10
80.4567628954
 20
51.8860448891
 10
80.4572849497
 20
52.0035417847
 10
80.4567628955
 20
52.096698598
  0
LINE
  5
118
330
1F
100
AcDbEntity
  8
0
  6
Continuous
 62
     7
370
    25
100
AcDbLine
 10
66.7570399521
 20
74.2816406071
 30
0.0
 11
80.4567628948
 21
74.2816552341
 31
0.0
  0
LINE
  5
119
330
1F
100
AcDbEntity
  8
0
  6
Continuous
 62
     7
370
    25
100
AcDbLine
 10
94.1564858465
 20
48.2819957567
 30
0.0
 11
80.4567716932
 21
48.28198113
 31
0.0
  0
LINE
  5
11A
330
1F
100
AcDbEntity
  8
0
  6
Continuous
 62
     7
370
    25
100
AcDbLine
 10
66.4569714577
 20
48.5825199776
 30
0.0
 11
66.4569107101
 21
61.2818103191
 31
0.0
  0
LWPOLYLINE
  5
11B
330
1F
100
AcDbEntity
  8
0
  6
Continuous
 62
     7
370
    25
100
AcDbPolyline
 90
        7
 70
   128
 43
0.0
 10
70.5561905983
 20
61.2818181816
 10
69.3010163071
 20
61.2844224535
 10
68.1381474352
 20
61.2822191516
 10
67.6428152945
 20
61.28164611
 10
67.22335279
 20
61.2806136748
 10
66.8250166968
 20
61.2799367872
 10
66.4569335744
 20
61.2818103248
  0
LWPOLYLINE
  5
11C
330
1F
100
AcDbEntity
  8
0
  6
Continuous
 62
     7
370
    25
100
AcDbPolyline
 90
        5
 70
   128
 43
0.0
 10
73.0031049824
 20
61.2818181817
 10
72.2819614232
 20
61.2823913806
 10
71.6364217382
 20
61.2832222954
 10
71.0603131785
 20
61.2828264205
 10
70.5561905983
 20
61.2818181816
  0
LWPOLYLINE
  5
11D
330
1F
100
AcDbEntity
  8
0
  6
Continuous
 62
     7
370
    25
100
AcDbPolyline
 90
        3
 70
   128
 43
0.0
 10
73.0031049824
 20
61.2818181817
 10
73.1676584719
 20
61.2811199225
 10
73.3380188496
 20
61.2818181818
  0
LWPOLYLINE
  5
11E
330
1F
100
AcDbEntity
  8
0
  6
Continuous
 62
     7
370
    25
100
AcDbPolyline
 90
        3
 70
   128
 43
0.0
 10
73.3380188496
 20
61.2818181818
 10
73.3972857473
 20
61.2818468858
 10
73.4567908553
 20
61.2818183017
  0
LINE
  5
11F
330
1F
100
AcDbEntity
  8
0
  6
Continuous
 62
     7
370
    25
100
AcDbLine
 10
94.4565543342
 20
73.9811163708
 30
0.0
 11
94.456615081
 21
61.2818171127
 31
0.0
  0
LWPOLYLINE
  5
120
330
1F
100
AcDbEntity
  8
0
  6
Continuous
 62
     7
370
    25
100
AcDbPolyline
 90
        7
 70
   128
 43
0.0
 10
90.3573351256
 20
61.2818181816
 10
91.6152555706
 20
61.2791727409
 10
92.7810799267
 20
61.2814139238
 10
93.2764666619
 20
61.2819877225
 10
93.6940550036
 20
61.2829984752
 10
94.0904206615
 20
61.2836607923
 10
94.4565922187
 20
61.281817107
  0
LWPOLYLINE
  5
121
330
1F
100
AcDbEntity
  8
0
  6
Continuous
 62
     7
370
    25
100
AcDbPolyline
 90
        5
 70
   128
 43
0.0
 10
87.9104208083
 20
61.2818181819
 10
88.6315643554
 20
61.2812449829
 10
89.2771040232
 20
61.2804140675
 10
89.8532125635
 20
61.280809942
 10
90.3573351256
 20
61.2818181816
  0
LWPOLYLINE
  5
122
330
1F
100
AcDbEntity
  8
0
  6
Continuous
 62
     7
370
    25
100
AcDbPolyline
 90
        3
 70
   128
 43
0.0
 10
87.9104208083
 20
61.2818181819
 10
87.745867301
 20
61.2825164412
 10
87.5755069044
 20
61.2818181819
  0
LWPOLYLINE
  5
123
330
1F
100
AcDbEntity
  8
0
  6
Continuous
 62
     7
370
    25
100
AcDbPolyline
 90
        3
 70
   128
 43
0.0
 10
87.5755069044
 20
61.2818181819
 10
87.5162393463
 20
61.2818028611
 10
87.4567337005
 20
61.2818447989
  0
LINE
  5
124
330
1F
100
AcDbEntity
  8
0
  6
Continuous
 62
     7
370
    25
100
AcDbLine
 10
66.4569107101
 20
61.2818103191
 30
0.0
 11
66.4569673267
 21
73.9810826626
 31
0.0
  0
LINE
  5
125
330
1F
100
AcDbEntity
  8
0
  6
Continuous
 62
     7
370
    25
100
AcDbLine
 10
94.456615081
 20
61.2818171127
 30
0.0
 11
94.4565584629
 21
48.5825536867
 31
0.0
  0
LINE
  5
126
330
1F
100
AcDbEntity
  8
0
  6
Continuous
 62
     7
370
    25
100
AcDbLine
 10
65.5510968981
 20
46.3761521845
 30
0.0
 11
95.3624288926
 21
46.3761521845
 31
0.0
  0
LINE
  5
127
330
1F
100
AcDbEntity
  8
0
  6
Continuous
 62
     7
370
    25
100
AcDbLine
 10
65.5510968981
 20
76.1874841791
 30
0.0
 11
65.5510968981
 21
46.3761521845
 31
0.0
  0
LINE
  5
128
330
1F
100
AcDbEntity
  8
0
  6
Continuous
 62
     7
370
    25
100
AcDbLine
 10
65.5510968981
 20
76.1874841791
 30
0.0
 11
95.3624288926
 21
76.1874841791
 31
0.0
  0
LINE
  5
129
330
1F
100
AcDbEntity
  8
0
  6
Continuous
 62
     7
370
    25
100
AcDbLine
 10
95.3624288926
 20
76.1874841791
 30
0.0
 11
95.3624288926
 21
46.3761521845
 31
0.0
  0
LINE
  5
12A
330
1F
100
AcDbEntity
  8
0
  6
Continuous
 62
     7
370
    25
100
AcDbLine
 10
65.456777708
 20
76.2818178391
 30
0.0
 11
65.5510968981
 21
76.1874841791
 31
0.0
  0
LINE
  5
12B
330
1F
100
AcDbEntity
  8
0
  6
Continuous
 62
     7
370
    25
100
AcDbLine
 10
65.5510968981
 20
46.3761521845
 30
0.0
 11
65.4567902125
 21
46.2818181013
 31
0.0
  0
LINE
  5
12C
330
1F
100
AcDbEntity
  8
0
  6
Continuous
 62
     7
370
    25
100
AcDbLine
 10
65.4567902125
 20
46.2818180942
 30
0.0
 11
65.4568423955
 21
47.682087827
 31
0.0
  0
LINE
  5
12D
330
1F
100
AcDbEntity
  8
0
  6
Continuous
 62
     7
370
    25
100
AcDbLine
 10
65.4568250638
 20
74.8816530329
 30
0.0
 11
65.456777708
 21
76.2818178319
 31
0.0
  0
LINE
  5
12E
330
1F
100
AcDbEntity
  8
0
  6
Continuous
 62
     7
370
    25
100
AcDbLine
 10
65.4567646316
 20
74.8816530329
 30
0.0
 11
65.4567632909
 21
47.682087827
 31
0.0
  0
LINE
  5
12F
330
1F
100
AcDbEntity
  8
0
  6
Continuous
 62
     7
370
    25
100
AcDbLine
 10
65.456777708
 20
76.2818178319
 30
0.0
 11
95.4567365134
 21
76.281818184
 31
0.0
  0
LINE
  5
130
330
1F
100
AcDbEntity
  8
0
  6
Continuous
 62
     7
370
    25
100
AcDbLine
 10
95.3624288926
 20
76.1874841791
 30
0.0
 11
95.4567365134
 21
76.2818181773
 31
0.0
  0
LINE
  5
131
330
1F
100
AcDbEntity
  8
0
  6
Continuous
 62
     7
370
    25
100
AcDbLine
 10
95.3624288926
 20
46.3761521845
 30
0.0
 11
95.4567625128
 21
46.2818185643
 31
0.0
  0
LINE
  5
132
330
1F
100
AcDbEntity
  8
0
  6
Continuous
 62
     7
370
    25
100
AcDbLine
 10
95.4567480693
 20
46.2818185318
 30
0.0
 11
65.4567902125
 21
46.2818180942
 31
0.0
  0
LINE
  5
133
330
1F
100
AcDbEntity
  8
0
  6
Continuous
 62
     7
370
    25
100
AcDbLine
 10
95.4567365134
 20
76.281818184
 30
0.0
 11
95.4566854227
 21
74.8813479362
 31
0.0
  0
LINE
  5
134
330
1F
100
AcDbEntity
  8
0
  6
Continuous
 62
     7
370
    25
100
AcDbLine
 10
95.4567611254
 20
47.6819490503
 30
0.0
 11
95.4567619431
 21
74.8813479362
 31
0.0
  0
LINE
  5
135
330
1F
100
AcDbEntity
  8
0
  6
Continuous
 62
     7
370
    25
100
AcDbLine
 10
95.4567006407
 20
47.6819490503
 30
0.0
 11
95.4567480693
 21
46.2818185318
 31
0.0
  0
LINE
  5
136
330
1F
100
AcDbEntity
  8
0
  6
Continuous
 62
     7
370
    25
100
AcDbLine
 10
33.9051004111
 20
76.7821227683
 30
0.0
 11
34.9567963569
 21
75.7304268225
 31
0.0
  0
LINE
  5
137
330
1F
100
AcDbEntity
  8
0
  6
Continuous
 62
     7
370
    25
100
AcDbLine
 10
34.9568107614
 20
46.8332239457
 30
0.0
 11
33.9051004111
 21
45.7815135953
 31
0.0
  0
LINE
  5
138
330
1F
100
AcDbEntity
  8
0
  6
Continuous
 62
     7
370
    25
100
AcDbLine
 10
34.4047958246
 20
45.2818181818
 30
0.0
 11
35.4047957435
 21
46.2818181007
 31
0.0
  0
LINE
  5
139
330
1F
100
AcDbEntity
  8
0
  6
Continuous
 62
     7
370
    25
100
AcDbLine
 10
35.4047961693
 20
76.2818178372
 30
0.0
 11
34.4047958246
 21
77.2818181818
 31
0.0
  0
LINE
  5
13A
330
1F
100
AcDbEntity
  8
0
  6
Continuous
 62
     7
370
    25
100
AcDbLine
 10
95.9997496299
 20
77.2818181818
 30
0.0
 11
94.9997496268
 21
76.2818181787
 31
0.0
  0
LINE
  5
13B
330
1F
100
AcDbEntity
  8
0
  6
Continuous
 62
     7
370
    25
100
AcDbLine
 10
65.4567858558
 20
76.0409121476
 30
0.0
 11
64.9567277249
 21
76.0409121476
 31
0.0
  0
LINE
  5
13C
330
1F
100
AcDbEntity
  8
0
  6
Continuous
 62
     7
370
    25
100
AcDbLine
 10
64.9567399087
 20
46.5227242161
 30
0.0
 11
65.4567991902
 21
46.5227242161
 31
0.0
  0
LINE
  5
13D
330
1F
100
AcDbEntity
  8
0
  6
Continuous
 62
     7
370
    25
100
AcDbLine
 10
94.9997492866
 20
46.2818185251
 30
0.0
 11
95.9997496299
 21
45.2818181818
 31
0.0
  0
LINE
  5
13E
330
1F
100
AcDbEntity
  8
0
  6
Continuous
 62
     7
370
    25
100
AcDbLine
 10
95.4567167252
 20
75.7393944501
 30
0.0
 11
96.4994450435
 21
76.7821227683
 31
0.0
  0
LINE
  5
13F
330
1F
100
AcDbEntity
  8
0
  6
Continuous
 62
     7
370
    25
100
AcDbLine
 10
96.4994450435
 20
45.7815135953
 30
0.0
 11
95.4567296955
 21
46.8242289433
 31
0.0
  0
LINE
  5
140
330
1F
100
AcDbEntity
  8
0
  6
Continuous
 62
     7
370
    25
100
AcDbLine
 10
64.956691266
 20
75.0415213206
 30
0.0
 11
65.4568196568
 21
75.0415213206
 31
0.0
  0
LINE
  5
141
330
1F
100
AcDbEntity
  8
0
  6
Continuous
 62
     7
370
    25
100
AcDbLine
 10
65.4568364339
 20
47.5221150431
 30
0.0
 11
64.956706055
 21
47.5221150431
 31
0.0
  0
LINE
  5
142
330
1F
100
AcDbEntity
  8
0
  6
Continuous
 62
     7
370
    25
100
AcDbLine
 10
64.9567611476
 20
48.4214509145
 30
0.0
 11
65.4567633273
 21
48.4214509145
 31
0.0
  0
LINE
  5
143
330
1F
100
AcDbEntity
  8
0
  6
Continuous
 62
     7
370
    25
100
AcDbLine
 10
65.4567645952
 20
74.1421854492
 30
0.0
 11
64.9567619209
 21
74.1421854492
 31
0.0
  0
ARC
  5
144
330
1F
100
AcDbEntity
  8
0
  6
Continuous
 62
     7
370
    25
100
AcDbCircle
 10
28.1902629194
 20
211.2741094665
 30
0.0
 40
74.09712218117004
100
AcDbArc
 50
269.8714828922
 51
270.094376857
  0
LINE
  5
145
330
1F
100
AcDbEntity
  8
0
  6
Continuous
 62
     7
370
    25
100
AcDbLine
 10
27.9408239182
 20
137.1921900982
 30
0.0
 11
28.0192348596
 21
137.1771365853
 31
0.0
  0
ARC
  5
146
330
1F
100
AcDbEntity
  8
0
  6
Continuous
 62
     7
370
    25
100
AcDbCircle
 10
102.2142825531
 20
211.2741881046
 30
0.0
 40
74.09720081920685
100
AcDbArc
 50
269.9056232293
 51
270.1285169435
  0
LINE
  5
147
330
1F
100
AcDbEntity
  8
0
  6
Continuous
 62
     7
370
    25
100
AcDbLine
 10
102.3853105935
 20
137.1771365852
 30
0.0
 11
102.4637215131
 21
137.1921900974
 31
0.0
  0
ARC
  5
148
330
1F
100
AcDbEntity
  8
0
  6
Continuous
 62
     7
370
    25
100
AcDbCircle
 10
99.4400486058
 20
139.8455396459
 30
0.0
 40
0.470358629260384
100
AcDbArc
 50
224.0415178923
 51
270.0339958378
  0
LWPOLYLINE
  5
149
330
1F
100
AcDbEntity
  8
0
  6
Continuous
 62
     7
370
    25
100
AcDbPolyline
 90
        3
 70
   128
 43
0.0
 10
31.3026076735
 20
139.5185559918
 10
31.192572932
 20
139.4222720281
 10
31.1890848957
 20
139.3961675942
  0
LINE
  5
14A
330
1F
100
AcDbEntity
  8
0
  6
Continuous
 62
     7
370
    25
100
AcDbLine
 10
37.1310907974
 20
176.1758145277
 30
0.0
 11
37.0967652007
 21
176.1659582
 31
0.0
  0
LINE
  5
14B
330
1F
100
AcDbEntity
  8
0
  6
Continuous
 62
     7
370
    25
100
AcDbLine
 10
86.7254351222
 20
176.1758139296
 30
0.0
 11
86.6911111791
 21
176.1659573867
 31
0.0
  0
LINE
  5
14C
330
1F
100
AcDbEntity
  8
0
  6
Continuous
 62
     7
370
    25
100
AcDbLine
 10
43.7134356215
 20
176.1659582
 30
0.0
 11
43.6790230114
 21
176.1758395129
 31
0.0
  0
LINE
  5
14D
330
1F
100
AcDbEntity
  8
0
  6
Continuous
 62
     7
370
    25
100
AcDbLine
 10
93.3077802539
 20
176.1659582
 30
0.0
 11
93.2733676439
 21
176.1758395129
 31
0.0
  0
LWPOLYLINE
  5
14E
330
1F
100
AcDbEntity
  8
0
  6
Continuous
 62
     7
370
    25
100
AcDbPolyline
 90
        3
 70
   128
 43
0.0
 10
98.3174842252
 20
175.6847194046
 10
98.2845209561
 20
175.8721361146
 10
98.1788540013
 20
176.0307709616
  0
LINE
  5
14F
330
1F
100
AcDbEntity
  8
0
  6
Continuous
 62
     7
370
    25
100
AcDbLine
 10
96.5439993988
 20
176.1663403317
 30
0.0
 11
96.327577337
 21
176.1663176731
 31
0.0
  0
LWPOLYLINE
  5
150
330
1F
100
AcDbEntity
  8
0
  6
Continuous
 62
     7
370
    25
100
AcDbPolyline
 90
        4
 70
   128
 43
0.0
 10
97.2432727607
 20
176.1663914036
 10
97.1308911929
 20
176.1663907539
 10
96.7812800813
 20
176.1663651742
 10
96.5439993988
 20
176.1663403317
  0
ARC
  5
151
330
1F
100
AcDbEntity
  8
0
  6
Continuous
 62
     7
370
    25
100
AcDbCircle
 10
97.465144122
 20
-60.5998036511
 30
0.0
 40
236.7662990114241
100
AcDbArc
 50
89.8893353171
 51
90.0536913172
  0
LWPOLYLINE
  5
152
330
1F
100
AcDbEntity
  8
0
  6
Continuous
 62
     7
370
    25
100
AcDbPolyline
 90
        3
 70
   128
 43
0.0
 10
32.2254228797
 20
176.0305052727
 10
32.1199097825
 20
175.8719573073
 10
32.086923694
 20
175.6847201507
  0
ARC
  5
153
330
1F
100
AcDbEntity
  8
0
  6
Continuous
 62
     7
370
    25
100
AcDbCircle
 10
32.7501585019
 20
39.9877206434
 30
0.0
 40
136.1786253262819
100
AcDbArc
 50
89.9812590276
 51
90.0988700911
  0
LWPOLYLINE
  5
154
330
1F
100
AcDbEntity
  8
0
  6
Continuous
 62
     7
370
    25
100
AcDbPolyline
 90
        5
 70
   128
 43
0.0
 10
34.0769681176
 20
176.1663176731
 10
33.6863357791
 20
176.1663520906
 10
33.3876940389
 20
176.1663801475
 10
33.0387702354
 20
176.1663914064
 10
32.7947013955
 20
176.1663386849
  0
ARC
  5
155
330
1F
100
AcDbEntity
  8
0
  6
Continuous
 62
     7
370
    25
100
AcDbCircle
 10
92.831617122
 20
176.6751810995
 30
0.0
 40
0.5000000000000903
100
AcDbArc
 50
270.0000000002
 51
359.5000000002
  0
ARC
  5
156
330
1F
100
AcDbEntity
  8
0
  6
Continuous
 62
     7
370
    25
100
AcDbCircle
 10
37.5729283326
 20
176.6751810995
 30
0.0
 40
0.4999999999993198
100
AcDbArc
 50
180.5
 51
270.0000000001
  0
LINE
  5
157
330
1F
100
AcDbEntity
  8
0
  6
Continuous
 62
     7
370
    25
100
AcDbLine
 10
98.3358572102
 20
175.191496793
 30
0.0
 11
98.2225503138
 21
188.1751810995
 31
0.0
  0
LINE
  5
158
330
1F
100
AcDbEntity
  8
0
  6
Continuous
 62
     7
370
    25
100
AcDbLine
 10
93.4319951408
 20
188.1751810995
 30
0.0
 11
93.3315980835
 21
176.6708178317
 31
0.0
  0
LINE
  5
159
330
1F
100
AcDbEntity
  8
0
  6
Continuous
 62
     7
370
    25
100
AcDbLine
 10
37.072947371
 20
176.6708178317
 30
0.0
 11
36.9725503138
 21
188.1751810995
 31
0.0
  0
LINE
  5
15A
330
1F
100
AcDbEntity
  8
0
  6
Continuous
 62
     7
370
    25
100
AcDbLine
 10
32.1819951408
 20
188.1751810995
 30
0.0
 11
32.0686988173
 21
175.1927083293
 31
0.0
  0
ARC
  5
15B
330
1F
100
AcDbEntity
  8
0
  6
Continuous
 62
     7
370
    25
100
AcDbCircle
 10
33.6455089538
 20
185.4111220263
 30
0.0
 40
3.275774374395336
100
AcDbArc
 50
211.9385419185
 51
242.4919846217
  0
ARC
  5
15C
330
1F
100
AcDbEntity
  8
0
  6
Continuous
 62
     7
370
    25
100
AcDbCircle
 10
34.1834950025
 20
186.0475067079
 30
0.0
 40
4.086060329720095
100
AcDbArc
 50
313.9006816065
 51
175.2552396813
  0
LINE
  5
15D
330
1F
100
AcDbEntity
  8
0
  6
Continuous
 62
     7
370
    25
100
AcDbLine
 10
36.9793217242
 20
187.399254322
 30
0.0
 11
37.0033238304
 21
187.3577388938
 31
0.0
  0
LWPOLYLINE
  5
15E
330
1F
100
AcDbEntity
  8
0
  6
Continuous
 62
     7
370
    25
100
AcDbPolyline
 90
        3
 70
   128
 43
0.0
 10
36.3744052915
 20
188.2498219946
 10
36.3809153866
 20
188.2444205164
 10
36.4389684427
 20
188.1751810995
  0
ARC
  5
15F
330
1F
100
AcDbEntity
  8
0
  6
Continuous
 62
     7
370
    25
100
AcDbCircle
 10
34.4087091971
 20
186.0453041281
 30
0.0
 40
2.906337819006803
100
AcDbArc
 50
333.1874546939
 51
27.8125453061
  0
ARC
  5
160
330
1F
100
AcDbEntity
  8
0
  6
Continuous
 62
     7
370
    25
100
AcDbCircle
 10
34.0601331458
 20
185.9894102197
 30
0.0
 40
2.981028400554784
100
AcDbArc
 50
171.0963894199
 51
229.975748208
  0
LINE
  5
161
330
1F
100
AcDbEntity
  8
0
  6
Continuous
 62
     7
370
    25
100
AcDbLine
 10
36.3744052915
 20
188.2498219946
 30
0.0
 11
36.4441353554
 21
188.1675608233
 31
0.0
  0
ARC
  5
162
330
1F
100
AcDbEntity
  8
0
  6
Continuous
 62
     7
370
    25
100
AcDbCircle
 10
34.1780621059
 20
186.0506201694
 30
0.0
 40
3.100392905026525
100
AcDbArc
 50
43.0705785554
 51
175.3348543445
  0
LINE
  5
163
330
1F
100
AcDbEntity
  8
0
  6
Continuous
 62
     7
370
    25
100
AcDbLine
 10
26.4533198257
 20
131.585893854
 30
0.0
 11
31.0879406553
 21
186.3027819948
 31
0.0
  0
LINE
  5
164
330
1F
100
AcDbEntity
  8
0
  6
Continuous
 62
     7
370
    25
100
AcDbLine
 10
30.1114373109
 20
186.3854936526
 30
0.0
 11
25.4768164785
 21
131.6686054794
 31
0.0
  0
LINE
  5
165
330
1F
100
AcDbEntity
  8
0
  6
Continuous
 62
     7
370
    25
100
AcDbLine
 10
98.2868447637
 20
180.8077668675
 30
0.0
 11
103.9526897295
 21
131.5712330728
 31
0.0
  0
LINE
  5
166
330
1F
100
AcDbEntity
  8
0
  6
Continuous
 62
     7
370
    25
100
AcDbLine
 10
98.8768679556
 20
184.2528896236
 30
0.0
 11
98.6456437249
 21
186.2622421058
 31
0.0
  0
LINE
  5
167
330
1F
100
AcDbEntity
  8
0
  6
Continuous
 62
     7
370
    25
100
AcDbLine
 10
104.9262648755
 20
131.6832662606
 30
0.0
 11
98.9914516188
 21
183.2571506932
 31
0.0
  0
LINE
  5
168
330
1F
100
AcDbEntity
  8
0
  6
Continuous
 62
     7
370
    25
100
AcDbLine
 10
93.9571726741
 20
188.1707112019
 30
0.0
 11
94.1980427845
 21
188.3902564928
 31
0.0
  0
LINE
  5
169
330
1F
100
AcDbEntity
  8
0
  6
Continuous
 62
     7
370
    25
100
AcDbLine
 10
93.9604336545
 20
188.1751810995
 30
0.0
 11
94.1340047825
 21
188.3318879316
 31
0.0
  0
ARC
  5
16A
330
1F
100
AcDbEntity
  8
0
  6
Continuous
 62
     7
370
    25
100
AcDbCircle
 10
95.6057984607
 20
185.8989642753
 30
0.0
 40
2.485368970915558
100
AcDbArc
 50
179.3243226604
 51
207.5425202413
  0
ARC
  5
16B
330
1F
100
AcDbEntity
  8
0
  6
Continuous
 62
     7
370
    25
100
AcDbCircle
 10
96.2429477529
 20
186.0587988863
 30
0.0
 40
3.08632688209091
100
AcDbArc
 50
327.304998134
 51
137.2591706462
  0
ARC
  5
16C
330
1F
100
AcDbEntity
  8
0
  6
Continuous
 62
     7
370
    25
100
AcDbCircle
 10
96.1952431008
 20
186.041959929
 30
0.0
 40
3.087764119589224
100
AcDbArc
 50
153.7762658046
 51
184.9073834814
  0
ARC
  5
16D
330
1F
100
AcDbEntity
  8
0
  6
Continuous
 62
     7
370
    25
100
AcDbCircle
 10
96.21340822
 20
186.047208627
 30
0.0
 40
4.086311799167777
100
AcDbArc
 50
313.2432179392
 51
184.9431196409
  0
LINE
  5
16E
330
1F
100
AcDbEntity
  8
0
  6
Continuous
 62
     7
370
    25
100
AcDbLine
 10
100.2931081436
 20
186.3854936526
 30
0.0
 11
100.2574903311
 21
186.580130614
 31
0.0
  0
LINE
  5
16F
330
1F
100
AcDbEntity
  8
0
  6
Continuous
 62
     7
370
    25
100
AcDbLine
 10
93.1122060712
 20
183.3949515952
 30
0.0
 11
93.3877395749
 21
183.1039955421
 31
0.0
  0
LINE
  5
170
330
1F
100
AcDbEntity
  8
0
  6
Continuous
 62
     7
370
    25
100
AcDbLine
 10
92.1422945137
 20
185.6951045092
 30
0.0
 11
92.1342408626
 21
182.7837907833
 31
0.0
  0
LINE
  5
171
330
1F
100
AcDbEntity
  8
0
  6
Continuous
 62
     7
370
    25
100
AcDbLine
 10
93.110744207
 20
182.866502441
 30
0.0
 11
93.1187978581
 21
185.7778161669
 31
0.0
  0
LINE
  5
172
330
1F
100
AcDbEntity
  8
0
  6
Continuous
 62
     7
370
    25
100
AcDbLine
 10
92.0913544978
 20
182.7949876345
 30
0.0
 11
88.0914671036
 21
180.5003813835
 31
0.0
  0
LINE
  5
173
330
1F
100
AcDbEntity
  8
0
  6
Continuous
 62
     7
370
    25
100
AcDbLine
 10
88.6513491726
 20
179.6960605092
 30
0.0
 11
92.6512365669
 21
181.9906667603
 31
0.0
  0
ARC
  5
174
330
1F
100
AcDbEntity
  8
0
  6
Continuous
 62
     7
370
    25
100
AcDbCircle
 10
92.1224944379
 20
182.8265298903
 30
0.0
 40
0.0443239186366059
100
AcDbArc
 50
225.367738785
 51
285.367738785
  0
ARC
  5
175
330
1F
100
AcDbEntity
  8
0
  6
Continuous
 62
     7
370
    25
100
AcDbCircle
 10
92.1224944379
 20
182.8265298903
 30
0.0
 40
0.9890578400978339
100
AcDbArc
 50
302.316226905
 51
2.316226905
  0
LINE
  5
176
330
1F
100
AcDbEntity
  8
0
  6
Continuous
 62
     7
370
    25
100
AcDbLine
 10
31.390535021
 20
183.0611132352
 30
0.0
 11
29.2037558207
 21
164.0578703564
 31
0.0
  0
LINE
  5
177
330
1F
100
AcDbEntity
  8
0
  6
Continuous
 62
     7
370
    25
100
AcDbLine
 10
31.7589017296
 20
186.2622421058
 30
0.0
 11
31.5465218871
 21
184.4166484913
 31
0.0
  0
LINE
  5
178
330
1F
100
AcDbEntity
  8
0
  6
Continuous
 62
     7
370
    25
100
AcDbLine
 10
26.451855725
 20
131.5712330728
 30
0.0
 11
32.1177006908
 21
180.8077668675
 31
0.0
  0
LINE
  5
179
330
1F
100
AcDbEntity
  8
0
  6
Continuous
 62
     7
370
    25
100
AcDbLine
 10
37.2923372185
 20
183.3957341773
 30
0.0
 11
37.2938012475
 21
182.866502441
 31
0.0
  0
LINE
  5
17A
330
1F
100
AcDbEntity
  8
0
  6
Continuous
 62
     7
370
    25
100
AcDbLine
 10
38.2703045919
 20
182.7837907833
 30
0.0
 11
38.2622509409
 21
185.6951045092
 31
0.0
  0
LINE
  5
17B
330
1F
100
AcDbEntity
  8
0
  6
Continuous
 62
     7
370
    25
100
AcDbLine
 10
37.7533088877
 20
181.9906667603
 30
0.0
 11
41.7531962819
 21
179.6960605092
 31
0.0
  0
LINE
  5
17C
330
1F
100
AcDbEntity
  8
0
  6
Continuous
 62
     7
370
    25
100
AcDbLine
 10
42.313078351
 20
180.5003813835
 30
0.0
 11
38.3131909567
 21
182.7949876345
 31
0.0
  0
ARC
  5
17D
330
1F
100
AcDbEntity
  8
0
  6
Continuous
 62
     7
370
    25
100
AcDbCircle
 10
38.2820510167
 20
182.8265298903
 30
0.0
 40
0.9890578400978153
100
AcDbArc
 50
177.683773095
 51
237.683773095
  0
ARC
  5
17E
330
1F
100
AcDbEntity
  8
0
  6
Continuous
 62
     7
370
    25
100
AcDbCircle
 10
38.2820510167
 20
182.8265298903
 30
0.0
 40
0.0443239186364783
100
AcDbArc
 50
254.632261215
 51
314.6322612152
  0
LINE
  5
17F
330
1F
100
AcDbEntity
  8
0
  6
Continuous
 62
     7
370
    25
100
AcDbLine
 10
104.9277289761
 20
131.6686054794
 30
0.0
 11
100.2931081436
 21
186.3854936526
 31
0.0
  0
LINE
  5
180
330
1F
100
AcDbEntity
  8
0
  6
Continuous
 62
     7
370
    25
100
AcDbLine
 10
99.5389510777
 20
183.6777352225
 30
0.0
 11
101.2007896339
 21
164.0578703564
 31
0.0
  0
LINE
  5
181
330
1F
100
AcDbEntity
  8
0
  6
Continuous
 62
     7
370
    25
100
AcDbLine
 10
102.3853105949
 20
137.1771365853
 30
0.0
 11
102.4637215363
 21
137.1921900982
 31
0.0
  0
LINE
  5
182
330
1F
100
AcDbEntity
  8
0
  6
Continuous
 62
     7
370
    25
100
AcDbLine
 10
27.9408239414
 20
137.1921900974
 30
0.0
 11
28.0192348611
 21
137.1771365852
 31
0.0
  0
LINE
  5
183
330
1F
100
AcDbEntity
  8
0
  6
Continuous
 62
     7
370
    25
100
AcDbLine
 10
28.0240597733
 20
137.177173686
 30
0.0
 11
28.0411431048
 21
137.1771091995
 31
0.0
  0
LINE
  5
184
330
1F
100
AcDbEntity
  8
0
  6
Continuous
 62
     7
370
    25
100
AcDbLine
 10
102.2447740796
 20
139.3751810995
 30
0.0
 11
102.0922307819
 21
137.6316032281
 31
0.0
  0
LINE
  5
185
330
1F
100
AcDbEntity
  8
0
  6
Continuous
 62
     7
370
    25
100
AcDbLine
 10
102.9919201032
 20
139.3751810995
 30
0.0
 11
102.2447740796
 21
139.3751810995
 31
0.0
  0
LINE
  5
186
330
1F
100
AcDbEntity
  8
0
  6
Continuous
 62
     7
370
    25
100
AcDbLine
 10
102.8393768055
 20
137.6316032281
 30
0.0
 11
102.9919201032
 21
139.3751810995
 31
0.0
  0
ARC
  5
187
330
1F
100
AcDbEntity
  8
0
  6
Continuous
 62
     7
370
    25
100
AcDbCircle
 10
102.4658037937
 20
140.809983644
 30
0.0
 40
3.200259186903272
100
AcDbArc
 50
263.2964593206
 51
276.7035406794
  0
LINE
  5
188
330
1F
100
AcDbEntity
  8
0
  6
Continuous
 62
     7
370
    25
100
AcDbLine
 10
28.3123146726
 20
137.6316032281
 30
0.0
 11
28.1597713749
 21
139.3751810995
 31
0.0
  0
LINE
  5
189
330
1F
100
AcDbEntity
  8
0
  6
Continuous
 62
     7
370
    25
100
AcDbLine
 10
102.2447740796
 20
139.3751810995
 30
0.0
 11
28.1597713749
 21
139.3751810995
 31
0.0
  0
LINE
  5
18A
330
1F
100
AcDbEntity
  8
0
  6
Continuous
 62
     7
370
    25
100
AcDbLine
 10
102.0922307819
 20
137.6316032281
 30
0.0
 11
28.3123146726
 21
137.6316032281
 31
0.0
  0
LINE
  5
18B
330
1F
100
AcDbEntity
  8
0
  6
Continuous
 62
     7
370
    25
100
AcDbLine
 10
27.4126253513
 20
139.3751810995
 30
0.0
 11
27.5651686491
 21
137.6316032281
 31
0.0
  0
LINE
  5
18C
330
1F
100
AcDbEntity
  8
0
  6
Continuous
 62
     7
370
    25
100
AcDbLine
 10
28.1597713749
 20
139.3751810995
 30
0.0
 11
27.4126253513
 21
139.3751810995
 31
0.0
  0
ARC
  5
18D
330
1F
100
AcDbEntity
  8
0
  6
Continuous
 62
     7
370
    25
100
AcDbCircle
 10
27.9387416608
 20
140.809983644
 30
0.0
 40
3.200259186902925
100
AcDbArc
 50
263.2964593206
 51
276.7035406794
  0
LINE
  5
18E
330
1F
100
AcDbEntity
  8
0
  6
Continuous
 62
     7
370
    25
100
AcDbLine
 10
28.3123146726
 20
137.6316032281
 30
0.0
 11
28.3123146726
 21
137.1751810995
 31
0.0
  0
LINE
  5
18F
330
1F
100
AcDbEntity
  8
0
  6
Continuous
 62
     7
370
    25
100
AcDbLine
 10
102.0922307819
 20
137.1751810995
 30
0.0
 11
102.0922307819
 21
137.6316032281
 31
0.0
  0
LINE
  5
190
330
1F
100
AcDbEntity
  8
0
  6
Continuous
 62
     7
370
    25
100
AcDbLine
 10
28.3123146726
 20
137.1751810995
 30
0.0
 11
102.0922307819
 21
137.1751810995
 31
0.0
  0
LINE
  5
191
330
1F
100
AcDbEntity
  8
0
  6
Continuous
 62
     7
370
    25
100
AcDbLine
 10
28.0632659981
 20
137.1751810995
 30
0.0
 11
28.3123146726
 21
137.1751810995
 31
0.0
  0
ARC
  5
192
330
1F
100
AcDbEntity
  8
0
  6
Continuous
 62
     7
370
    25
100
AcDbCircle
 10
28.0632659981
 20
137.6751810995
 30
0.0
 40
0.4999999999978115
100
AcDbArc
 50
185.0
 51
270.0000000002
  0
LINE
  5
193
330
1F
100
AcDbEntity
  8
0
  6
Continuous
 62
     7
370
    25
100
AcDbLine
 10
102.0922307819
 20
137.1751810995
 30
0.0
 11
102.3412794564
 21
137.1751810995
 31
0.0
  0
ARC
  5
194
330
1F
100
AcDbEntity
  8
0
  6
Continuous
 62
     7
370
    25
100
AcDbCircle
 10
102.3412794564
 20
137.6751810995
 30
0.0
 40
0.4999999999979283
100
AcDbArc
 50
269.9999999998
 51
355.0
  0
LWPOLYLINE
  5
195
330
1F
100
AcDbEntity
  8
0
  6
Continuous
 62
     7
370
    25
100
AcDbPolyline
 90
        9
 70
   128
 43
0.0
 10
87.8979711943
 20
139.3751810995
 10
87.9594352752
 20
139.3846823458
 10
88.0185634147
 20
139.41282499
 10
88.0731084486
 20
139.4585394713
 10
88.1209973938
 20
139.5200884116
 10
88.1604102315
 20
139.5951326443
 10
88.1898490775
 20
139.6808201144
 10
88.2081951088
 20
139.7738942708
 10
88.2147510848
 20
139.8708178317
  0
LINE
  5
196
330
1F
100
AcDbEntity
  8
0
  6
Continuous
 62
     7
370
    25
100
AcDbLine
 10
91.7841390021
 20
139.8708178317
 30
0.0
 11
88.2147510848
 21
139.8708178317
 31
0.0
  0
LWPOLYLINE
  5
197
330
1F
100
AcDbEntity
  8
0
  6
Continuous
 62
     7
370
    25
100
AcDbPolyline
 90
        9
 70
   128
 43
0.0
 10
92.1009188926
 20
139.3751810995
 10
92.0394548117
 20
139.3846823458
 10
91.9803266722
 20
139.41282499
 10
91.9257816383
 20
139.4585394713
 10
91.8778926931
 20
139.5200884116
 10
91.8384798554
 20
139.5951326443
 10
91.8090410095
 20
139.6808201144
 10
91.7906949781
 20
139.7738942708
 10
91.7841390021
 20
139.8708178317
  0
LWPOLYLINE
  5
198
330
1F
100
AcDbEntity
  8
0
  6
Continuous
 62
     7
370
    25
100
AcDbPolyline
 90
        9
 70
   128
 43
0.0
 10
38.3036265619
 20
139.3751810995
 10
38.3650906429
 20
139.3846823458
 10
38.4242187823
 20
139.41282499
 10
38.4787638163
 20
139.4585394713
 10
38.5266527614
 20
139.5200884116
 10
38.5660655991
 20
139.5951326443
 10
38.5955044451
 20
139.6808201144
 10
38.6138504764
 20
139.7738942708
 10
38.6204064524
 20
139.8708178317
  0
LINE
  5
199
330
1F
100
AcDbEntity
  8
0
  6
Continuous
 62
     7
370
    25
100
AcDbLine
 10
42.1897943698
 20
139.8708178317
 30
0.0
 11
38.6204064524
 21
139.8708178317
 31
0.0
  0
LWPOLYLINE
  5
19A
330
1F
100
AcDbEntity
  8
0
  6
Continuous
 62
     7
370
    25
100
AcDbPolyline
 90
        9
 70
   128
 43
0.0
 10
42.5065742603
 20
139.3751810995
 10
42.4451101793
 20
139.3846823458
 10
42.3859820398
 20
139.41282499
 10
42.3314370059
 20
139.4585394713
 10
42.2835480608
 20
139.5200884116
 10
42.2441352231
 20
139.5951326443
 10
42.2146963771
 20
139.6808201144
 10
42.1963503458
 20
139.7738942708
 10
42.1897943698
 20
139.8708178317
  0
LWPOLYLINE
  5
19B
330
1F
100
AcDbEntity
  8
0
  6
Continuous
 62
     7
370
    25
100
AcDbPolyline
 90
        5
 70
   128
 43
0.0
 10
88.2147510848
 20
139.8708178317
 10
88.1794273299
 20
149.6013224479
 10
88.1525307817
 20
159.5837105688
 10
88.1373829094
 20
167.5803659723
 10
88.1275389976
 20
175.6926331736
  0
LWPOLYLINE
  5
19C
330
1F
100
AcDbEntity
  8
0
  6
Continuous
 62
     7
370
    25
100
AcDbPolyline
 90
        3
 70
   128
 43
0.0
 10
88.1275389976
 20
175.6926331736
 10
88.1111080498
 20
175.969096258
 10
88.0779285683
 20
176.1751810995
  0
LINE
  5
19D
330
1F
100
AcDbEntity
  8
0
  6
Continuous
 62
     7
370
    25
100
AcDbLine
 10
91.9209615186
 20
176.1751810995
 30
0.0
 11
88.0779285683
 21
176.1751810995
 31
0.0
  0
LWPOLYLINE
  5
19E
330
1F
100
AcDbEntity
  8
0
  6
Continuous
 62
     7
370
    25
100
AcDbPolyline
 90
        3
 70
   128
 43
0.0
 10
91.9209615186
 20
176.1751810995
 10
91.8816087007
 20
175.9106166192
 10
91.8713510893
 20
175.6926331736
  0
LWPOLYLINE
  5
19F
330
1F
100
AcDbEntity
  8
0
  6
Continuous
 62
     7
370
    25
100
AcDbPolyline
 90
        5
 70
   128
 43
0.0
 10
91.8713510893
 20
175.6926331736
 10
91.853900675
 20
163.2030805316
 10
91.8358723397
 20
155.2769826808
 10
91.8125981458
 20
147.4938037582
 10
91.7841390021
 20
139.8708178317
  0
LWPOLYLINE
  5
1A0
330
1F
100
AcDbEntity
  8
0
  6
Continuous
 62
     7
370
    25
100
AcDbPolyline
 90
        6
 70
   128
 43
0.0
 10
38.6204064524
 20
139.8708178317
 10
38.5979625524
 20
145.7466268509
 10
38.5786052233
 20
151.7204106687
 10
38.5581860096
 20
159.5837081838
 10
38.5430382538
 20
167.5803656539
 10
38.5331943652
 20
175.6926331736
  0
LWPOLYLINE
  5
1A1
330
1F
100
AcDbEntity
  8
0
  6
Continuous
 62
     7
370
    25
100
AcDbPolyline
 90
        3
 70
   128
 43
0.0
 10
38.5331943652
 20
175.6926331736
 10
38.516763428
 20
175.9690961673
 10
38.483583936
 20
176.1751810995
  0
LINE
  5
1A2
330
1F
100
AcDbEntity
  8
0
  6
Continuous
 62
     7
370
    25
100
AcDbLine
 10
42.3266168862
 20
176.1751810995
 30
0.0
 11
38.483583936
 21
176.1751810995
 31
0.0
  0
LWPOLYLINE
  5
1A3
330
1F
100
AcDbEntity
  8
0
  6
Continuous
 62
     7
370
    25
100
AcDbPolyline
 90
        3
 70
   128
 43
0.0
 10
42.3266168862
 20
176.1751810995
 10
42.2872640684
 20
175.9106166192
 10
42.277006457
 20
175.6926331736
  0
LWPOLYLINE
  5
1A4
330
1F
100
AcDbEntity
  8
0
  6
Continuous
 62
     7
370
    25
100
AcDbPolyline
 90
        5
 70
   128
 43
0.0
 10
42.277006457
 20
175.6926331736
 10
42.2595560427
 20
163.2030805316
 10
42.2415277074
 20
155.2769826808
 10
42.2182535134
 20
147.4938037582
 10
42.1897943698
 20
139.8708178317
  0
LINE
  5
1A5
330
1F
100
AcDbEntity
  8
0
  6
Continuous
 62
     7
370
    25
100
AcDbLine
 10
92.0813253868
 20
139.8682312545
 30
0.0
 11
91.7841390021
 21
139.8708178317
 31
0.0
  0
LINE
  5
1A6
330
1F
100
AcDbEntity
  8
0
  6
Continuous
 62
     7
370
    25
100
AcDbLine
 10
92.4177316816
 20
139.8664548962
 30
0.0
 11
92.0813253868
 21
139.8682312545
 31
0.0
  0
LINE
  5
1A7
330
1F
100
AcDbEntity
  8
0
  6
Continuous
 62
     7
370
    25
100
AcDbLine
 10
92.4177316816
 20
139.3751810995
 30
0.0
 11
92.4177316816
 21
139.8664548962
 31
0.0
  0
LINE
  5
1A8
330
1F
100
AcDbEntity
  8
0
  6
Continuous
 62
     7
370
    25
100
AcDbLine
 10
87.9175648566
 20
139.8682312555
 30
0.0
 11
87.5811584053
 21
139.8664548962
 31
0.0
  0
LINE
  5
1A9
330
1F
100
AcDbEntity
  8
0
  6
Continuous
 62
     7
370
    25
100
AcDbLine
 10
88.2147510848
 20
139.8708178317
 30
0.0
 11
87.9175650272
 21
139.8682312567
 31
0.0
  0
LINE
  5
1AA
330
1F
100
AcDbEntity
  8
0
  6
Continuous
 62
     7
370
    25
100
AcDbLine
 10
87.5811584053
 20
139.3751810995
 30
0.0
 11
87.5811584053
 21
139.8664548968
 31
0.0
  0
LINE
  5
1AB
330
1F
100
AcDbEntity
  8
0
  6
Continuous
 62
     7
370
    25
100
AcDbLine
 10
42.4869807544
 20
139.8682312545
 30
0.0
 11
42.1897943698
 21
139.8708178317
 31
0.0
  0
LINE
  5
1AC
330
1F
100
AcDbEntity
  8
0
  6
Continuous
 62
     7
370
    25
100
AcDbLine
 10
42.8233870493
 20
139.8664548962
 30
0.0
 11
42.4869807544
 21
139.8682312545
 31
0.0
  0
LINE
  5
1AD
330
1F
100
AcDbEntity
  8
0
  6
Continuous
 62
     7
370
    25
100
AcDbLine
 10
42.8233870493
 20
139.3751810995
 30
0.0
 11
42.8233870493
 21
139.8664548962
 31
0.0
  0
LINE
  5
1AE
330
1F
100
AcDbEntity
  8
0
  6
Continuous
 62
     7
370
    25
100
AcDbLine
 10
38.3232200678
 20
139.8682312545
 30
0.0
 11
37.9868137729
 21
139.8664548962
 31
0.0
  0
LINE
  5
1AF
330
1F
100
AcDbEntity
  8
0
  6
Continuous
 62
     7
370
    25
100
AcDbLine
 10
38.6204064524
 20
139.8708178317
 30
0.0
 11
38.3232203949
 21
139.8682312567
 31
0.0
  0
LINE
  5
1B0
330
1F
100
AcDbEntity
  8
0
  6
Continuous
 62
     7
370
    25
100
AcDbLine
 10
37.9868137729
 20
139.3751810995
 30
0.0
 11
37.9868137729
 21
139.8664548963
 31
0.0
  0
LINE
  5
1B1
330
1F
100
AcDbEntity
  8
0
  6
Continuous
 62
     7
370
    25
100
AcDbLine
 10
98.9524686846
 20
139.8664548962
 30
0.0
 11
96.9473844584
 21
139.8664548962
 31
0.0
  0
ARC
  5
1B2
330
1F
100
AcDbEntity
  8
0
  6
Continuous
 62
     7
370
    25
100
AcDbCircle
 10
99.4523925322
 20
139.8751810995
 30
0.0
 40
0.5
100
AcDbArc
 50
181.0
 51
270.0
  0
LINE
  5
1B3
330
1F
100
AcDbEntity
  8
0
  6
Continuous
 62
     7
370
    25
100
AcDbLine
 10
96.9473844584
 20
139.3751810995
 30
0.0
 11
96.9473844584
 21
139.8664548962
 31
0.0
  0
LINE
  5
1B4
330
1F
100
AcDbEntity
  8
0
  6
Continuous
 62
     7
370
    25
100
AcDbLine
 10
33.4571609962
 20
139.8664548962
 30
0.0
 11
31.45207677
 21
139.8664548962
 31
0.0
  0
LINE
  5
1B5
330
1F
100
AcDbEntity
  8
0
  6
Continuous
 62
     7
370
    25
100
AcDbLine
 10
33.4571609962
 20
139.3751810995
 30
0.0
 11
33.4571609962
 21
139.8664548962
 31
0.0
  0
ARC
  5
1B6
330
1F
100
AcDbEntity
  8
0
  6
Continuous
 62
     7
370
    25
100
AcDbCircle
 10
30.9521529224
 20
139.8751810995
 30
0.0
 40
0.5000000000000032
100
AcDbArc
 50
270.0
 51
359.0
  0
LINE
  5
1B7
330
1F
100
AcDbEntity
  8
0
  6
Continuous
 62
     7
370
    25
100
AcDbLine
 10
96.9473844584
 20
139.8664548962
 30
0.0
 11
92.4177316816
 21
139.8664548962
 31
0.0
  0
LINE
  5
1B8
330
1F
100
AcDbEntity
  8
0
  6
Continuous
 62
     7
370
    25
100
AcDbLine
 10
87.5811584053
 20
139.8664548962
 30
0.0
 11
42.8233870493
 21
139.8664548962
 31
0.0
  0
LINE
  5
1B9
330
1F
100
AcDbEntity
  8
0
  6
Continuous
 62
     7
370
    25
100
AcDbLine
 10
37.9868137729
 20
139.8664548962
 30
0.0
 11
33.4571609962
 21
139.8664548962
 31
0.0
  0
LWPOLYLINE
  5
1BA
330
1F
100
AcDbEntity
  8
0
  6
Continuous
 62
     7
370
    25
100
AcDbPolyline
 90
        5
 70
   128
 43
0.0
 10
37.7857195435
 20
175.6839073027
 10
37.8410161317
 20
163.1959275006
 10
37.8840571715
 20
155.2708038805
 10
37.9326923705
 20
147.4885571416
 10
37.9868137729
 20
139.8664548962
  0
ARC
  5
1BB
330
1F
100
AcDbEntity
  8
0
  6
Continuous
 62
     7
370
    25
100
AcDbCircle
 10
37.6814331265
 20
216.6367085804
 30
0.0
 40
40.95293405671106
100
AcDbArc
 50
270.1459035534
 51
271.1917545086
  0
ARC
  5
1BC
330
1F
100
AcDbEntity
  8
0
  6
Continuous
 62
     7
370
    25
100
AcDbCircle
 10
92.7231124755
 20
216.6367212678
 30
0.0
 40
40.952946744408
100
AcDbArc
 50
268.8082456538
 51
269.8540962849
  0
LWPOLYLINE
  5
1BD
330
1F
100
AcDbEntity
  8
0
  6
Continuous
 62
     7
370
    25
100
AcDbPolyline
 90
        6
 70
   128
 43
0.0
 10
92.4177316816
 20
139.8664548962
 10
92.4600303814
 20
145.7415855636
 10
92.499068666
 20
151.7146611955
 10
92.5446650929
 20
159.5770027758
 10
92.5846137075
 20
167.5726658762
 10
92.6188259111
 20
175.6839073027
  0
ARC
  5
1BE
330
1F
100
AcDbEntity
  8
0
  6
Continuous
 62
     7
370
    25
100
AcDbCircle
 10
43.1287678434
 20
216.6367212866
 30
0.0
 40
40.95294676321681
100
AcDbArc
 50
268.808245654
 51
269.8540962847
  0
LWPOLYLINE
  5
1BF
330
1F
100
AcDbEntity
  8
0
  6
Continuous
 62
     7
370
    25
100
AcDbPolyline
 90
        6
 70
   128
 43
0.0
 10
42.8233870493
 20
139.8664548962
 10
42.865685749
 20
145.7415855636
 10
42.9047240336
 20
151.7146611955
 10
42.9503204605
 20
159.5770027758
 10
42.9902690751
 20
167.5726658762
 10
43.0244812787
 20
175.6839073027
  0
LWPOLYLINE
  5
1C0
330
1F
100
AcDbEntity
  8
0
  6
Continuous
 62
     7
370
    25
100
AcDbPolyline
 90
        5
 70
   128
 43
0.0
 10
87.3800641758
 20
175.6839073027
 10
87.4246060753
 20
165.3798171152
 10
87.4784020418
 20
155.2708099281
 10
87.5270370149
 20
147.4885580781
 10
87.5811584053
 20
139.8664548962
  0
ARC
  5
1C1
330
1F
100
AcDbEntity
  8
0
  6
Continuous
 62
     7
370
    25
100
AcDbCircle
 10
87.2753583057
 20
216.672638532
 30
0.0
 40
40.98886496485916
100
AcDbArc
 50
270.1463619687
 51
271.1912961058
  0
LINE
  5
1C2
330
1F
100
AcDbEntity
  8
0
  6
Continuous
 62
     7
370
    25
100
AcDbLine
 10
92.6188259111
 20
175.6839073027
 30
0.0
 11
96.327577337
 21
175.6839073027
 31
0.0
  0
LINE
  5
1C3
330
1F
100
AcDbEntity
  8
0
  6
Continuous
 62
     7
370
    25
100
AcDbLine
 10
96.327577337
 20
175.6839073027
 30
0.0
 11
96.9473844584
 21
140.1751810995
 31
0.0
  0
LINE
  5
1C4
330
1F
100
AcDbEntity
  8
0
  6
Continuous
 62
     7
370
    25
100
AcDbLine
 10
96.9473844584
 20
140.1751810995
 30
0.0
 11
96.9473844584
 21
139.8664548962
 31
0.0
  0
LINE
  5
1C5
330
1F
100
AcDbEntity
  8
0
  6
Continuous
 62
     7
370
    25
100
AcDbLine
 10
33.4571609962
 20
140.1751810995
 30
0.0
 11
33.4571609962
 21
139.8664548962
 31
0.0
  0
LINE
  5
1C6
330
1F
100
AcDbEntity
  8
0
  6
Continuous
 62
     7
370
    25
100
AcDbLine
 10
33.4571609962
 20
140.1751810995
 30
0.0
 11
34.0769681176
 21
175.6839073027
 31
0.0
  0
LINE
  5
1C7
330
1F
100
AcDbEntity
  8
0
  6
Continuous
 62
     7
370
    25
100
AcDbLine
 10
34.0769681176
 20
175.6839073027
 30
0.0
 11
37.7857195435
 21
175.6839073027
 31
0.0
  0
LINE
  5
1C8
330
1F
100
AcDbEntity
  8
0
  6
Continuous
 62
     7
370
    25
100
AcDbLine
 10
43.0244812787
 20
175.6839073027
 30
0.0
 11
87.3800641758
 21
175.6839073027
 31
0.0
  0
LWPOLYLINE
  5
1C9
330
1F
100
AcDbEntity
  8
0
  6
Continuous
 62
     7
370
    25
100
AcDbPolyline
 90
        7
 70
   128
 43
0.0
 10
96.9473844584
 20
140.1751810995
 10
97.3533328057
 20
140.175214535
 10
97.732488941
 20
140.175238704
 10
98.3614195709
 20
140.1751810995
 10
98.7865332375
 20
140.1752384875
 10
98.9054471774
 20
140.1752144581
 10
98.9470798487
 20
140.1751810995
  0
LINE
  5
1CA
330
1F
100
AcDbEntity
  8
0
  6
Continuous
 62
     7
370
    25
100
AcDbLine
 10
98.9470798487
 20
140.1751810995
 30
0.0
 11
98.9524686846
 21
139.8664548962
 31
0.0
  0
LINE
  5
1CB
330
1F
100
AcDbEntity
  8
0
  6
Continuous
 62
     7
370
    25
100
AcDbLine
 10
31.4574656059
 20
140.1751810995
 30
0.0
 11
31.45207677
 21
139.8664548962
 31
0.0
  0
LWPOLYLINE
  5
1CC
330
1F
100
AcDbEntity
  8
0
  6
Continuous
 62
     7
370
    25
100
AcDbPolyline
 90
        7
 70
   128
 43
0.0
 10
31.4574656059
 20
140.1751810995
 10
31.499094284
 20
140.175214535
 10
31.6180019201
 20
140.175238704
 10
32.0431258836
 20
140.1751810995
 10
32.6720323768
 20
140.1752384875
 10
33.0511933767
 20
140.1752144581
 10
33.4571609962
 20
140.1751810995
  0
LINE
  5
1CD
330
1F
100
AcDbEntity
  8
0
  6
Continuous
 62
     7
370
    25
100
AcDbLine
 10
98.2900791815
 20
175.6846373627
 30
0.0
 11
98.3272727273
 21
175.6839073027
 31
0.0
  0
LINE
  5
1CE
330
1F
100
AcDbEntity
  8
0
  6
Continuous
 62
     7
370
    25
100
AcDbLine
 10
98.9470798487
 20
140.1751810995
 30
0.0
 11
98.3272727273
 21
175.6839073027
 31
0.0
  0
LINE
  5
1CF
330
1F
100
AcDbEntity
  8
0
  6
Continuous
 62
     7
370
    25
100
AcDbLine
 10
32.0772727273
 20
175.6839073027
 30
0.0
 11
31.4574656059
 21
140.1751810995
 31
0.0
  0
ARC
  5
1D0
330
1F
100
AcDbEntity
  8
0
  6
Continuous
 62
     7
370
    25
100
AcDbCircle
 10
33.0771204224
 20
74.2589632559
 30
0.0
 40
101.4298721792908
100
AcDbArc
 50
89.4351961639
 51
90.5648038361
  0
LWPOLYLINE
  5
1D1
330
1F
100
AcDbEntity
  8
0
  6
Continuous
 62
     7
370
    25
100
AcDbPolyline
 90
        7
 70
   128
 43
0.0
 10
37.0133708807
 20
176.1751810995
 10
37.2049627098
 20
176.1378600997
 10
37.4517905118
 20
176.0352258285
 10
37.6814183058
 20
175.8797843178
 10
37.7591007221
 20
175.7808512589
 10
37.7787930822
 20
175.7318374013
 10
37.7857195435
 20
175.6839073027
  0
LINE
  5
1D2
330
1F
100
AcDbEntity
  8
0
  6
Continuous
 62
     7
370
    25
100
AcDbLine
 10
38.483583936
 20
176.1751810995
 30
0.0
 11
37.0133708807
 21
176.1751810995
 31
0.0
  0
LWPOLYLINE
  5
1D3
330
1F
100
AcDbEntity
  8
0
  6
Continuous
 62
     7
370
    25
100
AcDbPolyline
 90
        7
 70
   128
 43
0.0
 10
86.6077155131
 20
176.1751810995
 10
86.7993123254
 20
176.1378587444
 10
87.0461363955
 20
176.0352251823
 10
87.2757628768
 20
175.8797843558
 10
87.3534453392
 20
175.7808512624
 10
87.3731377108
 20
175.7318373988
 10
87.3800641758
 20
175.6839073027
  0
LINE
  5
1D4
330
1F
100
AcDbEntity
  8
0
  6
Continuous
 62
     7
370
    25
100
AcDbLine
 10
88.0779285683
 20
176.1751810995
 30
0.0
 11
86.6077155131
 21
176.1751810995
 31
0.0
  0
LWPOLYLINE
  5
1D5
330
1F
100
AcDbEntity
  8
0
  6
Continuous
 62
     7
370
    25
100
AcDbPolyline
 90
        7
 70
   128
 43
0.0
 10
43.0244812787
 20
175.6839073027
 10
43.0314078453
 20
175.7318464911
 10
43.0511002404
 20
175.7808631817
 10
43.1287825164
 20
175.8797843178
 10
43.3584103104
 20
176.0352258285
 10
43.6052381124
 20
176.1378600997
 10
43.7968299415
 20
176.1751810995
  0
LINE
  5
1D6
330
1F
100
AcDbEntity
  8
0
  6
Continuous
 62
     7
370
    25
100
AcDbLine
 10
43.7968299415
 20
176.1751810995
 30
0.0
 11
42.3266168862
 21
176.1751810995
 31
0.0
  0
LWPOLYLINE
  5
1D7
330
1F
100
AcDbEntity
  8
0
  6
Continuous
 62
     7
370
    25
100
AcDbPolyline
 90
        7
 70
   128
 43
0.0
 10
92.6188259111
 20
175.6839073027
 10
92.6257524776
 20
175.7318464911
 10
92.6454448728
 20
175.7808631816
 10
92.7231271488
 20
175.8797843178
 10
92.9527549428
 20
176.0352258285
 10
93.1995827447
 20
176.1378600997
 10
93.3911745738
 20
176.1751810995
  0
LINE
  5
1D8
330
1F
100
AcDbEntity
  8
0
  6
Continuous
 62
     7
370
    25
100
AcDbLine
 10
93.3911745738
 20
176.1751810995
 30
0.0
 11
91.9209615186
 21
176.1751810995
 31
0.0
  0
LINE
  5
1D9
330
1F
100
AcDbEntity
  8
0
  6
Continuous
 62
     7
370
    25
100
AcDbLine
 10
96.327577337
 20
176.1751810995
 30
0.0
 11
96.327577337
 21
175.6839073027
 31
0.0
  0
LINE
  5
1DA
330
1F
100
AcDbEntity
  8
0
  6
Continuous
 62
     7
370
    25
100
AcDbLine
 10
96.327577337
 20
176.1751810995
 30
0.0
 11
93.3911745738
 21
176.1751810994
 31
0.0
  0
LINE
  5
1DB
330
1F
100
AcDbEntity
  8
0
  6
Continuous
 62
     7
370
    25
100
AcDbLine
 10
34.0769681176
 20
175.6839073027
 30
0.0
 11
34.0769681176
 21
176.1751810995
 31
0.0
  0
LINE
  5
1DC
330
1F
100
AcDbEntity
  8
0
  6
Continuous
 62
     7
370
    25
100
AcDbLine
 10
37.0133708807
 20
176.1751810994
 30
0.0
 11
34.0769681176
 21
176.1751810995
 31
0.0
  0
LINE
  5
1DD
330
1F
100
AcDbEntity
  8
0
  6
Continuous
 62
     7
370
    25
100
AcDbLine
 10
86.6077155131
 20
176.1751810994
 30
0.0
 11
43.7968299415
 21
176.1751810994
 31
0.0
  0
ARC
  5
1DE
330
1F
100
AcDbEntity
  8
0
  6
Continuous
 62
     7
370
    25
100
AcDbCircle
 10
97.8273488797
 20
175.6751810995
 30
0.0
 40
0.4999999999999996
100
AcDbArc
 50
1.0
 51
79.0333178642
  0
LINE
  5
1DF
330
1F
100
AcDbEntity
  8
0
  6
Continuous
 62
     7
370
    25
100
AcDbLine
 10
97.8273488797
 20
176.1751810995
 30
0.0
 11
96.327577337
 21
176.1751810995
 31
0.0
  0
ARC
  5
1E0
330
1F
100
AcDbEntity
  8
0
  6
Continuous
 62
     7
370
    25
100
AcDbCircle
 10
32.5771965749
 20
175.6751810995
 30
0.0
 40
0.5000000000000258
100
AcDbArc
 50
100.9465897914
 51
134.9264331514
  0
LWPOLYLINE
  5
1E1
330
1F
100
AcDbEntity
  8
0
  6
Continuous
 62
     7
370
    25
100
AcDbPolyline
 90
        3
 70
   128
 43
0.0
 10
32.1167962326
 20
175.8701978292
 10
32.0883507347
 20
175.7802036901
 10
32.0772727273
 20
175.6839073027
  0
LINE
  5
1E2
330
1F
100
AcDbEntity
  8
0
  6
Continuous
 62
     7
370
    25
100
AcDbLine
 10
34.0769681176
 20
176.1751810995
 30
0.0
 11
32.5771965749
 21
176.1751810995
 31
0.0
  0
ARC
  5
1E3
330
1F
100
AcDbEntity
  8
0
  6
Continuous
 62
     7
370
    25
100
AcDbCircle
 10
97.9298979341
 20
176.6044819799
 30
0.0
 40
0.4413791505395935
100
AcDbArc
 50
171.3561385715
 51
256.5652538732
  0
ARC
  5
1E4
330
1F
100
AcDbEntity
  8
0
  6
Continuous
 62
     7
370
    25
100
AcDbCircle
 10
32.4746475204
 20
176.6044819799
 30
0.0
 40
0.4413791505395064
100
AcDbArc
 50
283.4347461268
 51
8.6438614286
  0
LWPOLYLINE
  5
1E5
330
1F
100
AcDbEntity
  8
0
  6
Continuous
 62
     7
370
    25
100
AcDbPolyline
 90
       11
 70
   128
 43
0.0
 10
98.3279322955
 20
175.6882702381
 10
98.3338524751
 20
175.318303648
 10
98.3353335787
 20
175.2257560025
 10
98.3357039758
 20
175.20261268
 10
98.3357966058
 20
175.1968252248
 10
98.335827512
 20
175.1948945091
 10
98.335796686
 20
175.1968209847
 10
98.3357041191
 20
175.2026051032
 10
98.3353337452
 20
175.2257471971
 10
98.3338524969
 20
175.3183024952
 10
98.3279322955
 20
175.6882702381
  0
ARC
  5
1E6
330
1F
100
AcDbEntity
  8
0
  6
Continuous
 62
     7
370
    25
100
AcDbCircle
 10
97.3535678739
 20
175.7063883133
 30
0.0
 40
0.974532857695264
100
AcDbArc
 50
358.934721345
 51
81.7425152744
  0
LINE
  5
1E7
330
1F
100
AcDbEntity
  8
0
  6
Continuous
 62
     7
370
    25
100
AcDbLine
 10
98.2225503138
 20
188.1751810995
 30
0.0
 11
93.4319951408
 21
188.1751810995
 31
0.0
  0
LINE
  5
1E8
330
1F
100
AcDbEntity
  8
0
  6
Continuous
 62
     7
370
    25
100
AcDbLine
 10
36.9725503138
 20
188.1751810995
 30
0.0
 11
32.1819951408
 21
188.1751810995
 31
0.0
  0
ARC
  5
1E9
330
1F
100
AcDbEntity
  8
0
  6
Continuous
 62
     7
370
    25
100
AcDbCircle
 10
33.050864915
 20
175.7064839913
 30
0.0
 40
0.9744219952879962
100
AcDbArc
 50
98.2517366912
 51
181.0710266893
  0
LWPOLYLINE
  5
1EA
330
1F
100
AcDbEntity
  8
0
  6
Continuous
 62
     7
370
    25
100
AcDbPolyline
 90
       11
 70
   128
 43
0.0
 10
32.076613159
 20
175.6882702381
 10
32.0706929577
 20
175.3183024952
 10
32.0692117094
 20
175.2257471971
 10
32.0688413355
 20
175.2026051032
 10
32.0687487686
 20
175.1968209847
 10
32.0687179425
 20
175.1948945091
 10
32.0687488487
 20
175.1968252248
 10
32.0688414787
 20
175.20261268
 10
32.0692118758
 20
175.2257560025
 10
32.0706929795
 20
175.318303648
 10
32.076613159
 20
175.6882702381
  0
ARC
  5
1EB
330
1F
100
AcDbEntity
  8
0
  6
Continuous
 62
     7
370
    25
100
AcDbCircle
 10
98.3407890947
 20
175.6840952841
 30
0.0
 40
0.0135176745840434
100
AcDbArc
 50
162.009970173
 51
180.7968006906
  0
ARC
  5
1EC
330
1F
100
AcDbEntity
  8
0
  6
Continuous
 62
     7
370
    25
100
AcDbCircle
 10
32.0637563598
 20
175.6840952841
 30
0.0
 40
0.0135176745866797
100
AcDbArc
 50
359.2031993116
 51
17.9900298253
  0
LINE
  5
1ED
330
1F
100
AcDbEntity
  8
0
  6
Continuous
 62
     7
370
    25
100
AcDbLine
 10
98.3355815793
 20
175.2078934877
 30
0.0
 11
98.3358846327
 21
175.1905315736
 31
0.0
  0
LINE
  5
1EE
330
1F
100
AcDbEntity
  8
0
  6
Continuous
 62
     7
370
    25
100
AcDbLine
 10
32.0689638752
 20
175.2078934877
 30
0.0
 11
32.0686608219
 21
175.1905315736
 31
0.0
  0
LINE
  5
1EF
330
1F
100
AcDbEntity
  8
0
  6
Continuous
 62
     7
370
    25
100
AcDbLine
 10
31.0879406553
 20
186.3027819948
 30
0.0
 11
30.1114373109
 21
186.3854936526
 31
0.0
  0
ARC
  5
1F0
330
1F
100
AcDbEntity
  8
0
  6
Continuous
 62
     7
370
    25
100
AcDbCircle
 10
25.9650681521
 20
131.6272496667
 30
0.0
 40
0.49
100
AcDbArc
 50
265.1584985611
 51
355.1584985611
  0
ARC
  5
1F1
330
1F
100
AcDbEntity
  8
0
  6
Continuous
 62
     7
370
    25
100
AcDbCircle
 10
25.9650681521
 20
131.6272496667
 30
0.0
 40
0.4900000000000059
100
AcDbArc
 50
175.1584985611
 51
265.1584985611
  0
ARC
  5
1F2
330
1F
100
AcDbEntity
  8
0
  6
Continuous
 62
     7
370
    25
100
AcDbCircle
 10
98.158856152
 20
186.2062255119
 30
0.0
 40
0.4900000000000141
100
AcDbArc
 50
6.5643809996
 51
80.9999323648
  0
ARC
  5
1F3
330
1F
100
AcDbEntity
  8
0
  6
Continuous
 62
     7
370
    25
100
AcDbCircle
 10
104.4394773025
 20
131.6272496667
 30
0.0
 40
0.48999999999999
100
AcDbArc
 50
186.5643809996
 51
276.5643809996
  0
ARC
  5
1F4
330
1F
100
AcDbEntity
  8
0
  6
Continuous
 62
     7
370
    25
100
AcDbCircle
 10
104.4394773025
 20
131.6272496667
 30
0.0
 40
0.4900000000000041
100
AcDbArc
 50
276.5643809996
 51
6.5643809996
  0
ARC
  5
1F5
330
1F
100
AcDbEntity
  8
0
  6
Continuous
 62
     7
370
    25
100
AcDbCircle
 10
109.8016541398
 20
185.0179824939
 30
0.0
 40
10.95267123474004
100
AcDbArc
 50
184.0063081404
 51
189.251438069
  0
LINE
  5
1F6
330
1F
100
AcDbEntity
  8
0
  6
Continuous
 62
     7
370
    25
100
AcDbLine
 10
92.1422945327
 20
185.6951045108
 30
0.0
 11
93.1187978581
 21
185.7778161669
 31
0.0
  0
LINE
  5
1F7
330
1F
100
AcDbEntity
  8
0
  6
Continuous
 62
     7
370
    25
100
AcDbLine
 10
93.110744123
 20
182.8665024339
 30
0.0
 11
92.1342408626
 21
182.7837907833
 31
0.0
  0
LINE
  5
1F8
330
1F
100
AcDbEntity
  8
0
  6
Continuous
 62
     7
370
    25
100
AcDbLine
 10
92.6512365346
 20
181.9906668066
 30
0.0
 11
92.0913544978
 21
182.7949876345
 31
0.0
  0
LINE
  5
1F9
330
1F
100
AcDbEntity
  8
0
  6
Continuous
 62
     7
370
    25
100
AcDbLine
 10
88.6513491244
 20
179.6960605784
 30
0.0
 11
88.0914671036
 21
180.5003813835
 31
0.0
  0
ARC
  5
1FA
330
1F
100
AcDbEntity
  8
0
  6
Continuous
 62
     7
370
    25
100
AcDbCircle
 10
32.2456893026
 20
186.2062255119
 30
0.0
 40
0.4900000000000054
100
AcDbArc
 50
99.0000676352
 51
259.9999323648
  0
LINE
  5
1FB
330
1F
100
AcDbEntity
  8
0
  6
Continuous
 62
     7
370
    25
100
AcDbLine
 10
38.2703045919
 20
182.7837907833
 30
0.0
 11
37.2938012475
 21
182.866502441
 31
0.0
  0
LINE
  5
1FC
330
1F
100
AcDbEntity
  8
0
  6
Continuous
 62
     7
370
    25
100
AcDbLine
 10
38.3131909567
 20
182.7949876345
 30
0.0
 11
37.7533088877
 21
181.9906667603
 31
0.0
  0
LINE
  5
1FD
330
1F
100
AcDbEntity
  8
0
  6
Continuous
 62
     7
370
    25
100
AcDbLine
 10
42.313078351
 20
180.5003813835
 30
0.0
 11
41.7531962819
 21
179.6960605092
 31
0.0
  0
ARC
  5
1FE
330
1F
100
AcDbEntity
  8
0
  6
Continuous
 62
     7
370
    25
100
AcDbCircle
 10
97.3487400754
 20
68.395813998
 30
0.0
 40
107.2929528827365
100
AcDbArc
 50
89.4973066881
 51
90.5453219143
  0
LINE
  5
1FF
330
1F
100
AcDbEntity
  8
0
  6
Continuous
 62
     7
370
    25
100
AcDbLine
 10
97.4935321365
 20
176.6708178317
 30
0.0
 11
93.3315980835
 21
176.6708178317
 31
0.0
  0
LINE
  5
200
330
1F
100
AcDbEntity
  8
0
  6
Continuous
 62
     7
370
    25
100
AcDbLine
 10
37.072947371
 20
176.6708178317
 30
0.0
 11
32.911013318
 21
176.6708178317
 31
0.0
  0
INSERT
  5
20C
330
1F
100
AcDbEntity
  8
0
  6
Continuous
 62
     7
370
    18
100
AcDbBlockReference
  2
SW_CENTERMARKSYMBOL_0
 10
32.3004183451
 20
186.6818241857
 30
0.0
  0
INSERT
  5
218
330
1F
100
AcDbEntity
  8
0
  6
Continuous
 62
     7
370
    18
100
AcDbBlockReference
  2
SW_CENTERMARKSYMBOL_1
 10
25.9650681521
 20
131.6272496667
 30
0.0
  0
INSERT
  5
224
330
1F
100
AcDbEntity
  8
0
  6
Continuous
 62
     7
370
    18
100
AcDbBlockReference
  2
SW_CENTERMARKSYMBOL_2
 10
98.1041271095
 20
186.6818241857
 30
0.0
  0
INSERT
  5
230
330
1F
100
AcDbEntity
  8
0
  6
Continuous
 62
     7
370
    18
100
AcDbBlockReference
  2
SW_CENTERMARKSYMBOL_3
 10
104.4808331152
 20
131.1389979931
 30
0.0
  0
LINE
  5
231
330
1F
100
AcDbEntity
  8
0
  6
Continuous
 62
     7
370
    25
100
AcDbLine
 10
228.4136140907
 20
67.9588817859
 30
0.0
 11
172.8610665051
 21
69.2445331365
 31
0.0
  0
LINE
  5
232
330
1F
100
AcDbEntity
  8
0
  6
Continuous
 62
     7
370
    25
100
AcDbLine
 10
173.8377042122
 20
68.2416684245
 30
0.0
 11
224.4144698874
 21
67.071171482
 31
0.0
  0
LINE
  5
233
330
1F
100
AcDbEntity
  8
0
  6
Continuous
 62
     7
370
    25
100
AcDbLine
 10
172.8594525386
 20
54.3461098282
 30
0.0
 11
228.0645923691
 21
54.3461098282
 31
0.0
  0
LINE
  5
234
330
1F
100
AcDbEntity
  8
0
  6
Continuous
 62
     7
370
    25
100
AcDbLine
 10
228.0645923691
 20
55.3261098282
 30
0.0
 11
173.8377042122
 21
55.3261098282
 31
0.0
  0
LINE
  5
235
330
1F
100
AcDbEntity
  8
0
  6
Continuous
 62
     7
370
    25
100
AcDbLine
 10
172.8577042122
 20
69.2412477567
 30
0.0
 11
172.8577042122
 21
54.3478581546
 31
0.0
  0
LINE
  5
236
330
1F
100
AcDbEntity
  8
0
  6
Continuous
 62
     7
370
    25
100
AcDbLine
 10
173.8377042122
 20
55.3243615018
 30
0.0
 11
173.8377042122
 21
68.2450316178
 31
0.0
  0
LWPOLYLINE
  5
237
330
1F
100
AcDbEntity
  8
0
  6
Continuous
 62
     7
370
    25
100
AcDbPolyline
 90
       29
 70
   128
 43
0.0
 10
224.4625232571
 20
64.786029645
 10
224.4592650173
 20
64.7823580418
 10
224.6254946287
 20
64.8134684342
 10
224.9978809674
 20
64.8688254291
 10
225.5234526388
 20
64.9293646457
 10
226.1410304339
 20
64.9873355794
 10
226.7898490731
 20
65.0433421834
 10
227.4409119027
 20
65.0969396518
 10
228.1100264221
 20
65.1496134532
 10
228.7847028987
 20
65.2039273314
 10
229.4191709548
 20
65.2589877643
 10
229.9874335908
 20
65.3123866918
 10
230.5116525561
 20
65.3684494992
 10
230.9754266255
 20
65.4331264441
 10
231.3131203718
 20
65.5023787334
 10
231.5569375537
 20
65.5931882155
 10
231.6640799263
 20
65.6654891444
 10
231.7717151632
 20
65.7889181115
 10
231.8453122146
 20
65.9875671175
 10
231.848304906
 20
66.1114314551
 10
231.8201874799
 20
66.2354687529
 10
231.6874018549
 20
66.4371891994
 10
231.5340346768
 20
66.5438255165
 10
231.2515407599
 20
66.6381021136
 10
230.918675978
 20
66.6994176599
 10
230.6596394781
 20
66.7361614085
 10
230.3549664744
 20
66.7732842861
 10
229.9089548363
 20
66.8200770526
 10
229.8956356449
 20
66.8212946473
  0
LWPOLYLINE
  5
238
330
1F
100
AcDbEntity
  8
0
  6
Continuous
 62
     7
370
    25
100
AcDbPolyline
 90
       31
 70
   128
 43
0.0
 10
224.4625232571
 20
62.986029645
 10
224.4592650173
 20
62.9823580418
 10
224.6254946287
 20
63.0134684342
 10
224.9978809674
 20
63.0688254291
 10
225.5234526388
 20
63.1293646457
 10
226.1410304339
 20
63.1873355794
 10
226.7898490731
 20
63.2433421834
 10
227.4409119027
 20
63.2969396518
 10
228.1100264221
 20
63.3496134532
 10
228.7847028987
 20
63.4039273314
 10
229.4191709548
 20
63.4589877643
 10
229.9874335908
 20
63.5123866918
 10
230.5116525561
 20
63.5684494992
 10
230.9754266255
 20
63.6331264441
 10
231.3131203718
 20
63.7023787334
 10
231.5569375537
 20
63.7931882155
 10
231.6640799263
 20
63.8654891444
 10
231.7717151632
 20
63.9889181115
 10
231.8453122146
 20
64.1875671175
 10
231.848304906
 20
64.3114314551
 10
231.8201874799
 20
64.4354687529
 10
231.6874018549
 20
64.6371891994
 10
231.5340346768
 20
64.7438255165
 10
231.2515407599
 20
64.8381021136
 10
230.918675978
 20
64.8994176599
 10
230.6596394781
 20
64.9361614085
 10
230.3549664744
 20
64.9732842861
 10
229.9089548363
 20
65.0200770526
 10
229.4619521161
 20
65.0609405057
 10
228.8992321861
 20
65.1094937814
 10
228.4166800574
 20
65.1494378758
  0
LWPOLYLINE
  5
239
330
1F
100
AcDbEntity
  8
0
  6
Continuous
 62
     7
370
    25
100
AcDbPolyline
 90
       31
 70
   128
 43
0.0
 10
224.4625232571
 20
61.186029645
 10
224.4592650173
 20
61.1823580418
 10
224.6254946287
 20
61.2134684342
 10
224.9978809674
 20
61.2688254291
 10
225.5234526388
 20
61.3293646457
 10
226.1410304339
 20
61.3873355794
 10
226.7898490731
 20
61.4433421834
 10
227.4409119027
 20
61.4969396518
 10
228.1100264221
 20
61.5496134532
 10
228.7847028987
 20
61.6039273314
 10
229.4191709548
 20
61.6589877643
 10
229.9874335908
 20
61.7123866918
 10
230.5116525561
 20
61.7684494992
 10
230.9754266255
 20
61.8331264441
 10
231.3131203718
 20
61.9023787334
 10
231.5569375537
 20
61.9931882155
 10
231.6640799263
 20
62.0654891444
 10
231.7717151632
 20
62.1889181115
 10
231.8453122146
 20
62.3875671175
 10
231.848304906
 20
62.5114314551
 10
231.8201874799
 20
62.6354687529
 10
231.6874018549
 20
62.8371891994
 10
231.5340346768
 20
62.9438255165
 10
231.2515407599
 20
63.0381021136
 10
230.918675978
 20
63.0994176599
 10
230.6596394781
 20
63.1361614085
 10
230.3549664744
 20
63.1732842861
 10
229.9089548363
 20
63.2200770526
 10
229.4619521161
 20
63.2609405057
 10
228.8992321861
 20
63.3094937814
 10
228.2644125115
 20
63.3620420876
  0
LWPOLYLINE
  5
23A
330
1F
100
AcDbEntity
  8
0
  6
Continuous
 62
     7
370
    25
100
AcDbPolyline
 90
       31
 70
   128
 43
0.0
 10
224.4625232571
 20
59.386029645
 10
224.4592650173
 20
59.3823580418
 10
224.6254946287
 20
59.4134684342
 10
224.9978809674
 20
59.4688254291
 10
225.5234526388
 20
59.5293646457
 10
226.1410304339
 20
59.5873355794
 10
226.7898490731
 20
59.6433421834
 10
227.4409119027
 20
59.6969396518
 10
228.1100264221
 20
59.7496134532
 10
228.7847028987
 20
59.8039273314
 10
229.4191709548
 20
59.8589877643
 10
229.9874335908
 20
59.9123866918
 10
230.5116525561
 20
59.9684494992
 10
230.9754266255
 20
60.0331264441
 10
231.3131203718
 20
60.1023787334
 10
231.5569375537
 20
60.1931882155
 10
231.6640799263
 20
60.2654891444
 10
231.7717151632
 20
60.3889181115
 10
231.8453122146
 20
60.5875671175
 10
231.848304906
 20
60.7114314551
 10
231.8201874799
 20
60.8354687529
 10
231.6874018549
 20
61.0371891994
 10
231.5340346768
 20
61.1438255165
 10
231.2515407599
 20
61.2381021136
 10
230.918675978
 20
61.2994176599
 10
230.6596394781
 20
61.3361614085
 10
230.3549664744
 20
61.3732842861
 10
229.9089548363
 20
61.4200770526
 10
229.4619521161
 20
61.4609405057
 10
228.8992321861
 20
61.5094937814
 10
228.2644125115
 20
61.5620420876
  0
LWPOLYLINE
  5
23B
330
1F
100
AcDbEntity
  8
0
  6
Continuous
 62
     7
370
    25
100
AcDbPolyline
 90
       31
 70
   128
 43
0.0
 10
224.4625232571
 20
57.586029645
 10
224.4592650173
 20
57.5823580418
 10
224.6254946287
 20
57.6134684342
 10
224.9978809674
 20
57.6688254291
 10
225.5234526388
 20
57.7293646457
 10
226.1410304339
 20
57.7873355794
 10
226.7898490731
 20
57.8433421834
 10
227.4409119027
 20
57.8969396518
 10
228.1100264221
 20
57.9496134532
 10
228.7847028987
 20
58.0039273314
 10
229.4191709548
 20
58.0589877643
 10
229.9874335908
 20
58.1123866918
 10
230.5116525561
 20
58.1684494992
 10
230.9754266255
 20
58.2331264441
 10
231.3131203718
 20
58.3023787334
 10
231.5569375537
 20
58.3931882155
 10
231.6640799263
 20
58.4654891444
 10
231.7717151632
 20
58.5889181115
 10
231.8453122146
 20
58.7875671175
 10
231.848304906
 20
58.9114314551
 10
231.8201874799
 20
59.0354687529
 10
231.6874018549
 20
59.2371891994
 10
231.5340346768
 20
59.3438255165
 10
231.2515407599
 20
59.4381021136
 10
230.918675978
 20
59.4994176599
 10
230.6596394781
 20
59.5361614085
 10
230.3549664744
 20
59.5732842861
 10
229.9089548363
 20
59.6200770526
 10
229.4619521161
 20
59.6609405057
 10
228.8992321861
 20
59.7094937814
 10
228.2644125115
 20
59.7620420876
  0
LWPOLYLINE
  5
23C
330
1F
100
AcDbEntity
  8
0
  6
Continuous
 62
     7
370
    25
100
AcDbPolyline
 90
       31
 70
   128
 43
0.0
 10
224.4625232571
 20
55.786029645
 10
224.4592650173
 20
55.7823580418
 10
224.6254946287
 20
55.8134684342
 10
224.9978809674
 20
55.8688254291
 10
225.5234526388
 20
55.9293646457
 10
226.1410304339
 20
55.9873355794
 10
226.7898490731
 20
56.0433421834
 10
227.4409119027
 20
56.0969396518
 10
228.1100264221
 20
56.1496134532
 10
228.7847028987
 20
56.2039273314
 10
229.4191709548
 20
56.2589877643
 10
229.9874335908
 20
56.3123866918
 10
230.5116525561
 20
56.3684494992
 10
230.9754266255
 20
56.4331264441
 10
231.3131203718
 20
56.5023787334
 10
231.5569375537
 20
56.5931882155
 10
231.6640799263
 20
56.6654891444
 10
231.7717151632
 20
56.7889181115
 10
231.8453122146
 20
56.9875671175
 10
231.848304906
 20
57.1114314551
 10
231.8201874799
 20
57.2354687529
 10
231.6874018549
 20
57.4371891994
 10
231.5340346768
 20
57.5438255165
 10
231.2515407599
 20
57.6381021136
 10
230.918675978
 20
57.6994176599
 10
230.6596394781
 20
57.7361614085
 10
230.3549664744
 20
57.7732842861
 10
229.9089548363
 20
57.8200770526
 10
229.4619521161
 20
57.8609405057
 10
228.8992321861
 20
57.9094937814
 10
228.2644125115
 20
57.9620420876
  0
LWPOLYLINE
  5
23D
330
1F
100
AcDbEntity
  8
0
  6
Continuous
 62
     7
370
    25
100
AcDbPolyline
 90
       22
 70
   128
 43
0.0
 10
228.0650382145
 20
54.3461375978
 10
228.1100264221
 20
54.3496134532
 10
228.7847028987
 20
54.4039273314
 10
229.4191709548
 20
54.4589877643
 10
229.9874335908
 20
54.5123866918
 10
230.5116525561
 20
54.5684494992
 10
230.9754266255
 20
54.6331264441
 10
231.3131203718
 20
54.7023787334
 10
231.5569375537
 20
54.7931882155
 10
231.6640799263
 20
54.8654891444
 10
231.7717151632
 20
54.9889181115
 10
231.8453122146
 20
55.1875671175
 10
231.848304906
 20
55.3114314551
 10
231.8201874799
 20
55.4354687529
 10
231.6874018549
 20
55.6371891994
 10
231.5340346768
 20
55.7438255165
 10
231.2515407599
 20
55.8381021136
 10
230.918675978
 20
55.8994176599
 10
230.6596394781
 20
55.9361614085
 10
230.3549664744
 20
55.9732842861
 10
229.9089548363
 20
56.0200770526
 10
229.8956356449
 20
56.0212946473
  0
LWPOLYLINE
  5
23E
330
1F
100
AcDbEntity
  8
0
  6
Continuous
 62
     7
370
    25
100
AcDbPolyline
 90
       30
 70
   128
 43
0.0
 10
231.0434306605
 20
66.4298708667
 10
231.0492931621
 20
66.436697968
 10
230.9364783597
 20
66.4171050549
 10
230.6368436747
 20
66.3692523548
 10
230.1898661146
 20
66.315001139
 10
229.6301912075
 20
66.2594509188
 10
228.9670819192
 20
66.1997339292
 10
228.2666323007
 20
66.1419218271
 10
227.6040140801
 20
66.0900031827
 10
226.9889559658
 20
66.0401454278
 10
226.4234381475
 20
65.9925642558
 10
225.8605067158
 20
65.9432636015
 10
225.3124933088
 20
65.8894319388
 10
224.8202497398
 20
65.8306204565
 10
224.4397119078
 20
65.7721808885
 10
224.1582652298
 20
65.7092437085
 10
223.9009429116
 20
65.5921355629
 10
223.7589759077
 20
65.4484692336
 10
223.6748881367
 20
65.2263724563
 10
223.6954547441
 20
65.0049557351
 10
223.7739598004
 20
64.8534737461
 10
223.8562195052
 20
64.766061985
 10
223.9262336359
 20
64.715730174
 10
224.0591603038
 20
64.6537386604
 10
224.2908864297
 20
64.587946121
 10
224.6914973693
 20
64.514759262
 10
225.1433061973
 20
64.4554293297
 10
225.746572284
 20
64.3928953591
 10
226.5276460982
 20
64.321828565
 10
227.2601796294
 20
64.2621313225
  0
LWPOLYLINE
  5
23F
330
1F
100
AcDbEntity
  8
0
  6
Continuous
 62
     7
370
    25
100
AcDbPolyline
 90
       30
 70
   128
 43
0.0
 10
231.0434306605
 20
64.6298708667
 10
231.0492931621
 20
64.636697968
 10
230.9364783597
 20
64.6171050549
 10
230.6368436747
 20
64.5692523548
 10
230.1898661146
 20
64.515001139
 10
229.6301912075
 20
64.4594509188
 10
228.9670819192
 20
64.3997339292
 10
228.2666323007
 20
64.3419218271
 10
227.6040140801
 20
64.2900031827
 10
226.9889559658
 20
64.2401454278
 10
226.4234381475
 20
64.1925642558
 10
225.8605067158
 20
64.1432636015
 10
225.3124933088
 20
64.0894319388
 10
224.8202497398
 20
64.0306204565
 10
224.4397119078
 20
63.9721808885
 10
224.1582652298
 20
63.9092437085
 10
223.9009429116
 20
63.7921355629
 10
223.7589759077
 20
63.6484692336
 10
223.6748881367
 20
63.4263724563
 10
223.6954547441
 20
63.2049557351
 10
223.7739598004
 20
63.0534737461
 10
223.8562195052
 20
62.966061985
 10
223.9262336359
 20
62.915730174
 10
224.0591603038
 20
62.8537386604
 10
224.2908864297
 20
62.787946121
 10
224.6914973693
 20
62.714759262
 10
225.1433061973
 20
62.6554293297
 10
225.746572284
 20
62.5928953591
 10
226.5276460982
 20
62.521828565
 10
227.2601796294
 20
62.4621313225
  0
LWPOLYLINE
  5
240
330
1F
100
AcDbEntity
  8
0
  6
Continuous
 62
     7
370
    25
100
AcDbPolyline
 90
       30
 70
   128
 43
0.0
 10
231.0434306605
 20
62.8298708667
 10
231.0492931621
 20
62.836697968
 10
230.9364783597
 20
62.8171050549
 10
230.6368436747
 20
62.7692523548
 10
230.1898661146
 20
62.715001139
 10
229.6301912075
 20
62.6594509188
 10
228.9670819192
 20
62.5997339292
 10
228.2666323007
 20
62.5419218271
 10
227.6040140801
 20
62.4900031827
 10
226.9889559658
 20
62.4401454278
 10
226.4234381475
 20
62.3925642558
 10
225.8605067158
 20
62.3432636015
 10
225.3124933088
 20
62.2894319388
 10
224.8202497398
 20
62.2306204565
 10
224.4397119078
 20
62.1721808885
 10
224.1582652298
 20
62.1092437085
 10
223.9009429116
 20
61.9921355629
 10
223.7589759077
 20
61.8484692336
 10
223.6748881367
 20
61.6263724563
 10
223.6954547441
 20
61.4049557351
 10
223.7739598004
 20
61.2534737461
 10
223.8562195052
 20
61.166061985
 10
223.9262336359
 20
61.115730174
 10
224.0591603038
 20
61.0537386604
 10
224.2908864297
 20
60.987946121
 10
224.6914973693
 20
60.914759262
 10
225.1433061973
 20
60.8554293297
 10
225.746572284
 20
60.7928953591
 10
226.5276460982
 20
60.721828565
 10
227.2601796294
 20
60.6621313225
  0
LWPOLYLINE
  5
241
330
1F
100
AcDbEntity
  8
0
  6
Continuous
 62
     7
370
    25
100
AcDbPolyline
 90
       30
 70
   128
 43
0.0
 10
231.0434306605
 20
61.0298708667
 10
231.0492931621
 20
61.036697968
 10
230.9364783597
 20
61.0171050549
 10
230.6368436747
 20
60.9692523548
 10
230.1898661146
 20
60.915001139
 10
229.6301912075
 20
60.8594509188
 10
228.9670819192
 20
60.7997339292
 10
228.2666323007
 20
60.7419218271
 10
227.6040140801
 20
60.6900031827
 10
226.9889559658
 20
60.6401454278
 10
226.4234381475
 20
60.5925642558
 10
225.8605067158
 20
60.5432636015
 10
225.3124933088
 20
60.4894319388
 10
224.8202497398
 20
60.4306204565
 10
224.4397119078
 20
60.3721808885
 10
224.1582652298
 20
60.3092437085
 10
223.9009429116
 20
60.1921355629
 10
223.7589759077
 20
60.0484692336
 10
223.6748881367
 20
59.8263724563
 10
223.6954547441
 20
59.6049557351
 10
223.7739598004
 20
59.4534737461
 10
223.8562195052
 20
59.366061985
 10
223.9262336359
 20
59.315730174
 10
224.0591603038
 20
59.2537386604
 10
224.2908864297
 20
59.187946121
 10
224.6914973693
 20
59.114759262
 10
225.1433061973
 20
59.0554293297
 10
225.746572284
 20
58.9928953591
 10
226.5276460982
 20
58.921828565
 10
227.2601796294
 20
58.8621313225
  0
LWPOLYLINE
  5
242
330
1F
100
AcDbEntity
  8
0
  6
Continuous
 62
     7
370
    25
100
AcDbPolyline
 90
       30
 70
   128
 43
0.0
 10
231.0434306605
 20
59.2298708667
 10
231.0492931621
 20
59.236697968
 10
230.9364783597
 20
59.2171050549
 10
230.6368436747
 20
59.1692523548
 10
230.1898661146
 20
59.115001139
 10
229.6301912075
 20
59.0594509188
 10
228.9670819192
 20
58.9997339292
 10
228.2666323007
 20
58.9419218271
 10
227.6040140801
 20
58.8900031827
 10
226.9889559658
 20
58.8401454278
 10
226.4234381475
 20
58.7925642558
 10
225.8605067158
 20
58.7432636015
 10
225.3124933088
 20
58.6894319388
 10
224.8202497398
 20
58.6306204565
 10
224.4397119078
 20
58.5721808885
 10
224.1582652298
 20
58.5092437085
 10
223.9009429116
 20
58.3921355629
 10
223.7589759077
 20
58.2484692336
 10
223.6748881367
 20
58.0263724563
 10
223.6954547441
 20
57.8049557351
 10
223.7739598004
 20
57.6534737461
 10
223.8562195052
 20
57.566061985
 10
223.9262336359
 20
57.515730174
 10
224.0591603038
 20
57.4537386604
 10
224.2908864297
 20
57.387946121
 10
224.6914973693
 20
57.314759262
 10
225.1433061973
 20
57.2554293297
 10
225.746572284
 20
57.1928953591
 10
226.5276460982
 20
57.121828565
 10
227.2601796294
 20
57.0621313225
  0
LWPOLYLINE
  5
243
330
1F
100
AcDbEntity
  8
0
  6
Continuous
 62
     7
370
    25
100
AcDbPolyline
 90
       29
 70
   128
 43
0.0
 10
231.0434306605
 20
57.4298708667
 10
231.0492931621
 20
57.436697968
 10
230.9364783597
 20
57.4171050549
 10
230.6368436747
 20
57.3692523548
 10
230.1898661146
 20
57.315001139
 10
229.6301912075
 20
57.2594509188
 10
228.9670819192
 20
57.1997339292
 10
228.2666323007
 20
57.1419218271
 10
227.6040140801
 20
57.0900031827
 10
226.9889559658
 20
57.0401454278
 10
226.4234381475
 20
56.9925642558
 10
225.8605067158
 20
56.9432636015
 10
225.3124933088
 20
56.8894319388
 10
224.8202497398
 20
56.8306204565
 10
224.4397119078
 20
56.7721808885
 10
224.1582652298
 20
56.7092437085
 10
223.9009429116
 20
56.5921355629
 10
223.7589759077
 20
56.4484692336
 10
223.6748881367
 20
56.2263724563
 10
223.6954547441
 20
56.0049557351
 10
223.7739598004
 20
55.8534737461
 10
223.8562195052
 20
55.766061985
 10
223.9262336359
 20
55.715730174
 10
224.0591603038
 20
55.6537386604
 10
224.2908864297
 20
55.587946121
 10
224.6914973693
 20
55.514759262
 10
225.1433061973
 20
55.4554293297
 10
225.746572284
 20
55.3928953591
 10
226.4805920188
 20
55.3261098282
  0
LWPOLYLINE
  5
244
330
1F
100
AcDbEntity
  8
0
  6
Continuous
 62
     7
370
    25
100
AcDbPolyline
 90
        9
 70
   128
 43
0.0
 10
231.0434306605
 20
55.6298708667
 10
231.0492931621
 20
55.636697968
 10
230.9364783597
 20
55.6171050549
 10
230.6368436747
 20
55.5692523548
 10
230.1898661146
 20
55.515001139
 10
229.6301912075
 20
55.4594509188
 10
228.9670819192
 20
55.3997339292
 10
228.2666323007
 20
55.3419218271
 10
228.0634541682
 20
55.3261760131
  0
LWPOLYLINE
  5
245
330
1F
100
AcDbEntity
  8
0
  6
Continuous
 62
     7
370
    25
100
AcDbPolyline
 90
       13
 70
   128
 43
0.0
 10
223.6981261362
 20
67.0877498092
 10
223.6748881367
 20
67.0263724563
 10
223.6954547441
 20
66.8049557351
 10
223.7739598004
 20
66.6534737461
 10
223.8562195052
 20
66.566061985
 10
223.9262336359
 20
66.515730174
 10
224.0591603038
 20
66.4537386604
 10
224.2908864297
 20
66.387946121
 10
224.6914973693
 20
66.314759262
 10
225.1433061973
 20
66.2554293297
 10
225.746572284
 20
66.1928953591
 10
226.5276460982
 20
66.121828565
 10
226.8956356449
 20
66.0918395471
  0
LWPOLYLINE
  5
246
330
1F
100
AcDbEntity
  8
0
  6
Continuous
 62
     7
370
    25
100
AcDbPolyline
 90
       13
 70
   128
 43
0.0
 10
231.0434306605
 20
68.2298708667
 10
231.0492931621
 20
68.236697968
 10
230.9364783597
 20
68.2171050549
 10
230.6368436747
 20
68.1692523548
 10
230.1898661146
 20
68.115001139
 10
229.6301912075
 20
68.0594509188
 10
228.9670819192
 20
67.9997339292
 10
228.2666323007
 20
67.9419218271
 10
227.6040140801
 20
67.8900031827
 10
226.9889559658
 20
67.8401454278
 10
226.4234381475
 20
67.7925642558
 10
225.8605067158
 20
67.7432636015
 10
225.3395831076
 20
67.6920929848
  0
LWPOLYLINE
  5
247
330
1F
100
AcDbEntity
  8
0
  6
Continuous
 62
     7
370
    25
100
AcDbPolyline
 90
       29
 70
   128
 43
0.0
 10
224.4625232571
 20
66.586029645
 10
224.4592650173
 20
66.5823580418
 10
224.6254946287
 20
66.6134684342
 10
224.9978809674
 20
66.6688254291
 10
225.5234526388
 20
66.7293646457
 10
226.1410304339
 20
66.7873355794
 10
226.7898490731
 20
66.8433421834
 10
227.4409119027
 20
66.8969396518
 10
228.1100264221
 20
66.9496134532
 10
228.7847028987
 20
67.0039273314
 10
229.4191709548
 20
67.0589877643
 10
229.9874335908
 20
67.1123866918
 10
230.5116525561
 20
67.1684494992
 10
230.9754266255
 20
67.2331264441
 10
231.3131203718
 20
67.3023787334
 10
231.5569375537
 20
67.3931882155
 10
231.6640799263
 20
67.4654891444
 10
231.7717151632
 20
67.5889181115
 10
231.8453122146
 20
67.7875671175
 10
231.848304906
 20
67.9114314551
 10
231.8201874799
 20
68.0354687529
 10
231.6874018549
 20
68.2371891994
 10
231.5340346768
 20
68.3438255165
 10
231.2515407599
 20
68.4381021136
 10
230.918675978
 20
68.4994176599
 10
230.6596394781
 20
68.5361614085
 10
230.3549664744
 20
68.5732842861
 10
229.9089548363
 20
68.6200770526
 10
229.8956356449
 20
68.6212946473
  0
LWPOLYLINE
  5
248
330
1F
100
AcDbEntity
  8
0
  6
Continuous
 62
     7
370
    25
100
AcDbPolyline
 90
        3
 70
   128
 43
0.0
 10
181.2390105374
 20
79.8843109192
 10
181.1427265736
 20
79.9943456608
 10
181.1166221397
 20
79.9978336972
  0
ARC
  5
249
330
1F
100
AcDbEntity
  8
0
  6
Continuous
 62
     7
370
    25
100
AcDbCircle
 10
181.5659941914
 20
42.3412146194
 30
0.0
 40
0.4703586292612772
100
AcDbArc
 50
134.0415178917
 51
180.0339958378
  0
LINE
  5
24A
330
1F
100
AcDbEntity
  8
0
  6
Continuous
 62
     7
370
    25
100
AcDbLine
 10
218.3912723772
 20
45.7861435381
 30
0.0
 11
229.8956356449
 21
45.8865405953
 31
0.0
  0
LINE
  5
24B
330
1F
100
AcDbEntity
  8
0
  6
Continuous
 62
     7
370
    25
100
AcDbLine
 10
229.8956356449
 20
76.6770957683
 30
0.0
 11
218.3912723772
 21
76.7774928256
 31
0.0
  0
LINE
  5
24C
330
1F
100
AcDbEntity
  8
0
  6
Continuous
 62
     7
370
    25
100
AcDbLine
 10
228.4166800574
 20
64.3543061242
 30
0.0
 11
228.4166800574
 21
65.1743001716
 31
0.0
  0
LINE
  5
24D
330
1F
100
AcDbEntity
  8
0
  6
Continuous
 62
     7
370
    25
100
AcDbLine
 10
228.4166800574
 20
66.1543061242
 30
0.0
 11
228.4166800574
 21
66.9743001716
 31
0.0
  0
LINE
  5
24E
330
1F
100
AcDbEntity
  8
0
  6
Continuous
 62
     7
370
    25
100
AcDbLine
 10
227.4366800574
 20
66.8965912734
 30
0.0
 11
227.4366800574
 21
66.0764387755
 31
0.0
  0
LINE
  5
24F
330
1F
100
AcDbEntity
  8
0
  6
Continuous
 62
     7
370
    25
100
AcDbLine
 10
227.4366800574
 20
65.0965912734
 30
0.0
 11
227.4366800574
 21
64.2764387755
 31
0.0
  0
LWPOLYLINE
  5
250
330
1F
100
AcDbEntity
  8
0
  6
Continuous
 62
     7
370
    25
100
AcDbPolyline
 90
        3
 70
   128
 43
0.0
 10
217.7509598265
 20
78.9614957048
 10
217.5924118584
 20
79.067008808
 10
217.4051746962
 20
79.0999948989
  0
ARC
  5
251
330
1F
100
AcDbEntity
  8
0
  6
Continuous
 62
     7
370
    25
100
AcDbCircle
 10
81.7081681198
 20
78.4367600918
 30
0.0
 40
136.1786323953902
100
AcDbArc
 50
359.9812590283
 51
0.0988700856
  0
LWPOLYLINE
  5
252
330
1F
100
AcDbEntity
  8
0
  6
Continuous
 62
     7
370
    25
100
AcDbPolyline
 90
        5
 70
   128
 43
0.0
 10
217.8867722185
 20
77.1099504753
 10
217.8868066361
 20
77.5005828138
 10
217.8868346929
 20
77.799224554
 10
217.8868459518
 20
78.1481483575
 10
217.8867932304
 20
78.3922171974
  0
LWPOLYLINE
  5
253
330
1F
100
AcDbEntity
  8
0
  6
Continuous
 62
     7
370
    25
100
AcDbPolyline
 90
        3
 70
   128
 43
0.0
 10
217.4051739501
 20
43.4637790001
 10
217.59259066
 20
43.4967422691
 10
217.751225507
 20
43.6024092239
  0
LINE
  5
254
330
1F
100
AcDbEntity
  8
0
  6
Continuous
 62
     7
370
    25
100
AcDbLine
 10
217.8867948772
 20
45.2372638265
 30
0.0
 11
217.8867722185
 21
45.4536858883
 31
0.0
  0
LWPOLYLINE
  5
255
330
1F
100
AcDbEntity
  8
0
  6
Continuous
 62
     7
370
    25
100
AcDbPolyline
 90
        4
 70
   128
 43
0.0
 10
217.886845949
 20
44.5379904645
 10
217.8868452993
 20
44.6503720324
 10
217.8868197197
 20
44.9999831439
 10
217.8867948772
 20
45.2372638265
  0
ARC
  5
256
330
1F
100
AcDbEntity
  8
0
  6
Continuous
 62
     7
370
    25
100
AcDbCircle
 10
-18.8793463492
 20
44.3161191032
 30
0.0
 40
236.7662962549716
100
AcDbArc
 50
359.8893353159
 51
0.0536913178
  0
ARC
  5
257
330
1F
100
AcDbEntity
  8
0
  6
Continuous
 62
     7
370
    25
100
AcDbCircle
 10
218.3956356449
 20
77.2774737871
 30
0.0
 40
0.5000000000000853
100
AcDbArc
 50
180.0000000002
 51
269.5000000002
  0
ARC
  5
258
330
1F
100
AcDbEntity
  8
0
  6
Continuous
 62
     7
370
    25
100
AcDbCircle
 10
218.3956356449
 20
45.2861625765
 30
0.0
 40
0.4999999999993201
100
AcDbArc
 50
90.5
 51
180.0000000001
  0
ARC
  5
259
330
1F
100
AcDbEntity
  8
0
  6
Continuous
 62
     7
370
    25
100
AcDbCircle
 10
181.5956356449
 20
41.4650138418
 30
0.0
 40
0.5000000000011153
100
AcDbArc
 50
90.5000000001
 51
179.9999999999
  0
ARC
  5
25A
330
1F
100
AcDbEntity
  8
0
  6
Continuous
 62
     7
370
    25
100
AcDbCircle
 10
181.5956356449
 20
81.0986225218
 30
0.0
 40
0.4999999999996668
100
AcDbArc
 50
180.0
 51
269.4999999999
  0
LINE
  5
25B
330
1F
100
AcDbEntity
  8
0
  6
Continuous
 62
     7
370
    25
100
AcDbLine
 10
181.5912723772
 20
41.9649948034
 30
0.0
 11
217.8956356449
 21
42.2818181818
 31
0.0
  0
LINE
  5
25C
330
1F
100
AcDbEntity
  8
0
  6
Continuous
 62
     7
370
    25
100
AcDbLine
 10
217.8956356449
 20
80.2818181818
 30
0.0
 11
181.5912723772
 21
80.5986415603
 31
0.0
  0
LINE
  5
25D
330
1F
100
AcDbEntity
  8
0
  6
Continuous
 62
     7
370
    25
100
AcDbLine
 10
223.8861647981
 20
55.7445348903
 30
0.0
 11
222.8956356449
 21
55.7445348903
 31
0.0
  0
LWPOLYLINE
  5
25E
330
1F
100
AcDbEntity
  8
0
  6
Continuous
 62
     7
370
    25
100
AcDbPolyline
 90
       12
 70
   128
 43
0.0
 10
224.8277664131
 20
59.0968648947
 10
224.6385255308
 20
59.0716478294
 10
224.3687545566
 20
59.0249876238
 10
224.2029286441
 20
58.9875017926
 10
224.0476507796
 20
58.9378106022
 10
223.8770498886
 20
58.841535869
 10
223.7866863755
 20
58.753217258
 10
223.708230087
 20
58.6209404623
 10
223.6784290839
 20
58.5172452649
 10
223.6732213663
 20
58.3790540282
 10
223.7092265555
 20
58.2346588893
 10
223.735834539
 20
58.1873471066
  0
ARC
  5
25F
330
1F
100
AcDbEntity
  8
0
  6
Continuous
 62
     7
370
    25
100
AcDbCircle
 10
229.3700266244
 20
66.9675876233
 30
0.0
 40
9.2214976845999
100
AcDbArc
 50
275.3547422108
 51
280.4649787049
  0
LWPOLYLINE
  5
260
330
1F
100
AcDbEntity
  8
0
  6
Continuous
 62
     7
370
    25
100
AcDbPolyline
 90
       12
 70
   128
 43
0.0
 10
224.8277664131
 20
60.8968648947
 10
224.6385255308
 20
60.8716478294
 10
224.3687545566
 20
60.8249876238
 10
224.2029286441
 20
60.7875017926
 10
224.0476507796
 20
60.7378106022
 10
223.8770498886
 20
60.641535869
 10
223.7866863755
 20
60.553217258
 10
223.708230087
 20
60.4209404623
 10
223.6784290839
 20
60.3172452649
 10
223.6732213663
 20
60.1790540282
 10
223.7092265555
 20
60.0346588893
 10
223.735834539
 20
59.9873471066
  0
ARC
  5
261
330
1F
100
AcDbEntity
  8
0
  6
Continuous
 62
     7
370
    25
100
AcDbCircle
 10
229.3700266244
 20
68.7675876233
 30
0.0
 40
9.22149768464769
100
AcDbArc
 50
275.3547422108
 51
280.4649787049
  0
LWPOLYLINE
  5
262
330
1F
100
AcDbEntity
  8
0
  6
Continuous
 62
     7
370
    25
100
AcDbPolyline
 90
       12
 70
   128
 43
0.0
 10
224.8277664131
 20
62.6968648947
 10
224.6385255308
 20
62.6716478294
 10
224.3687545566
 20
62.6249876238
 10
224.2029286441
 20
62.5875017926
 10
224.0476507796
 20
62.5378106022
 10
223.8770498886
 20
62.441535869
 10
223.7866863755
 20
62.353217258
 10
223.708230087
 20
62.2209404623
 10
223.6784290839
 20
62.1172452649
 10
223.6732213663
 20
61.9790540282
 10
223.7092265555
 20
61.8346588893
 10
223.735834539
 20
61.7873471066
  0
ARC
  5
263
330
1F
100
AcDbEntity
  8
0
  6
Continuous
 62
     7
370
    25
100
AcDbCircle
 10
229.3700266244
 20
70.5675876233
 30
0.0
 40
9.22149768463906
100
AcDbArc
 50
275.3547422108
 51
280.4649787049
  0
LWPOLYLINE
  5
264
330
1F
100
AcDbEntity
  8
0
  6
Continuous
 62
     7
370
    25
100
AcDbPolyline
 90
       12
 70
   128
 43
0.0
 10
224.8277664131
 20
64.4968648947
 10
224.6385255308
 20
64.4716478294
 10
224.3687545566
 20
64.4249876238
 10
224.2029286441
 20
64.3875017926
 10
224.0476507796
 20
64.3378106022
 10
223.8770498886
 20
64.241535869
 10
223.7866863755
 20
64.153217258
 10
223.708230087
 20
64.0209404623
 10
223.6784290839
 20
63.9172452649
 10
223.6732213663
 20
63.7790540282
 10
223.7092265555
 20
63.6346588893
 10
223.735834539
 20
63.5873471066
  0
ARC
  5
265
330
1F
100
AcDbEntity
  8
0
  6
Continuous
 62
     7
370
    25
100
AcDbCircle
 10
229.3700266244
 20
72.3675876233
 30
0.0
 40
9.2214976845846
100
AcDbArc
 50
275.3547422108
 51
280.4649787049
  0
LWPOLYLINE
  5
266
330
1F
100
AcDbEntity
  8
0
  6
Continuous
 62
     7
370
    25
100
AcDbPolyline
 90
       12
 70
   128
 43
0.0
 10
224.8277664131
 20
66.2968648947
 10
224.6385255308
 20
66.2716478294
 10
224.3687545566
 20
66.2249876238
 10
224.2029286441
 20
66.1875017926
 10
224.0476507796
 20
66.1378106022
 10
223.8770498886
 20
66.041535869
 10
223.7866863755
 20
65.953217258
 10
223.708230087
 20
65.8209404623
 10
223.6784290839
 20
65.7172452649
 10
223.6732213663
 20
65.5790540282
 10
223.7092265555
 20
65.4346588893
 10
223.735834539
 20
65.3873471066
  0
ARC
  5
267
330
1F
100
AcDbEntity
  8
0
  6
Continuous
 62
     7
370
    25
100
AcDbCircle
 10
229.3700266244
 20
74.1675876233
 30
0.0
 40
9.22149768462952
100
AcDbArc
 50
275.3547422108
 51
280.4649787049
  0
ARC
  5
268
330
1F
100
AcDbEntity
  8
0
  6
Continuous
 62
     7
370
    25
100
AcDbCircle
 10
229.3700266244
 20
75.9675876234
 30
0.0
 40
9.221497684690748
100
AcDbArc
 50
275.3547422108
 51
280.4649787049
  0
ARC
  5
269
330
1F
100
AcDbEntity
  8
0
  6
Continuous
 62
     7
370
    25
100
AcDbCircle
 10
229.3700266244
 20
77.7675876234
 30
0.0
 40
9.221497684707987
100
AcDbArc
 50
275.3547422108
 51
280.4649787049
  0
LWPOLYLINE
  5
26A
330
1F
100
AcDbEntity
  8
0
  6
Continuous
 62
     7
370
    25
100
AcDbPolyline
 90
        9
 70
   128
 43
0.0
 10
231.7854239003
 20
57.2882796261
 10
231.8219606183
 20
57.3601005976
 10
231.8505934556
 20
57.516409118
 10
231.8355062643
 20
57.6528477124
 10
231.8004715217
 20
57.749865699
 10
231.6126126147
 20
57.9644595695
 10
231.3126661398
 20
58.0891161884
 10
230.8852695526
 20
58.1719166123
 10
230.7060792039
 20
58.1955638258
  0
LWPOLYLINE
  5
26B
330
1F
100
AcDbEntity
  8
0
  6
Continuous
 62
     7
370
    25
100
AcDbPolyline
 90
        9
 70
   128
 43
0.0
 10
231.7854239003
 20
59.0882796261
 10
231.8219606183
 20
59.1601005976
 10
231.8505934556
 20
59.316409118
 10
231.8355062643
 20
59.4528477124
 10
231.8004715217
 20
59.549865699
 10
231.6126126147
 20
59.7644595695
 10
231.3126661398
 20
59.8891161884
 10
230.8852695526
 20
59.9719166123
 10
230.7060792039
 20
59.9955638258
  0
LWPOLYLINE
  5
26C
330
1F
100
AcDbEntity
  8
0
  6
Continuous
 62
     7
370
    25
100
AcDbPolyline
 90
        9
 70
   128
 43
0.0
 10
231.7854239003
 20
60.8882796261
 10
231.8219606183
 20
60.9601005976
 10
231.8505934556
 20
61.116409118
 10
231.8355062643
 20
61.2528477124
 10
231.8004715217
 20
61.349865699
 10
231.6126126147
 20
61.5644595695
 10
231.3126661398
 20
61.6891161884
 10
230.8852695526
 20
61.7719166123
 10
230.7060792039
 20
61.7955638258
  0
LWPOLYLINE
  5
26D
330
1F
100
AcDbEntity
  8
0
  6
Continuous
 62
     7
370
    25
100
AcDbPolyline
 90
        9
 70
   128
 43
0.0
 10
231.7854239003
 20
62.6882796261
 10
231.8219606183
 20
62.7601005976
 10
231.8505934556
 20
62.916409118
 10
231.8355062643
 20
63.0528477124
 10
231.8004715217
 20
63.149865699
 10
231.6126126147
 20
63.3644595695
 10
231.3126661398
 20
63.4891161884
 10
230.8852695526
 20
63.5719166123
 10
230.7060792039
 20
63.5955638258
  0
LWPOLYLINE
  5
26E
330
1F
100
AcDbEntity
  8
0
  6
Continuous
 62
     7
370
    25
100
AcDbPolyline
 90
        9
 70
   128
 43
0.0
 10
231.7854239003
 20
64.4882796261
 10
231.8219606183
 20
64.5601005976
 10
231.8505934556
 20
64.716409118
 10
231.8355062643
 20
64.8528477124
 10
231.8004715217
 20
64.949865699
 10
231.6126126147
 20
65.1644595695
 10
231.3126661398
 20
65.2891161884
 10
230.8852695526
 20
65.3719166123
 10
230.7060792039
 20
65.3955638258
  0
LWPOLYLINE
  5
26F
330
1F
100
AcDbEntity
  8
0
  6
Continuous
 62
     7
370
    25
100
AcDbPolyline
 90
        9
 70
   128
 43
0.0
 10
231.7854239003
 20
66.2882796261
 10
231.8219606183
 20
66.3601005976
 10
231.8505934556
 20
66.516409118
 10
231.8355062643
 20
66.6528477124
 10
231.8004715217
 20
66.749865699
 10
231.6126126147
 20
66.9644595695
 10
231.3126661398
 20
67.0891161884
 10
230.8852695526
 20
67.1719166123
 10
230.7060792039
 20
67.1955638258
  0
LWPOLYLINE
  5
270
330
1F
100
AcDbEntity
  8
0
  6
Continuous
 62
     7
370
    25
100
AcDbPolyline
 90
       10
 70
   128
 43
0.0
 10
231.7854239003
 20
68.0882796261
 10
231.8219606183
 20
68.1601005976
 10
231.8505934556
 20
68.316409118
 10
231.8355062643
 20
68.4528477124
 10
231.8004715217
 20
68.549865699
 10
231.6126126147
 20
68.7644595695
 10
231.3126661398
 20
68.8891161884
 10
230.8852695526
 20
68.9719166123
 10
230.4398193319
 20
69.0307013435
 10
229.8956356449
 20
69.0869539625
  0
LWPOLYLINE
  5
271
330
1F
100
AcDbEntity
  8
0
  6
Continuous
 62
     7
370
    25
100
AcDbPolyline
 90
        9
 70
   128
 43
0.0
 10
231.7854239003
 20
55.4882796261
 10
231.8219606183
 20
55.5601005976
 10
231.8505934556
 20
55.716409118
 10
231.8355062643
 20
55.8528477124
 10
231.8004715217
 20
55.949865699
 10
231.6126126147
 20
56.1644595695
 10
231.3126661398
 20
56.2891161884
 10
230.8852695526
 20
56.3719166123
 10
230.7060792039
 20
56.3955638258
  0
ARC
  5
272
330
1F
100
AcDbEntity
  8
0
  6
Continuous
 62
     7
370
    25
100
AcDbCircle
 10
229.3700266244
 20
65.1675876233
 30
0.0
 40
9.221497684605328
100
AcDbArc
 50
275.3547422108
 51
280.4649787049
  0
LWPOLYLINE
  5
273
330
1F
100
AcDbEntity
  8
0
  6
Continuous
 62
     7
370
    25
100
AcDbPolyline
 90
       12
 70
   128
 43
0.0
 10
224.8277664131
 20
57.2968648947
 10
224.6385255308
 20
57.2716478294
 10
224.3687545566
 20
57.2249876238
 10
224.2029286441
 20
57.1875017926
 10
224.0476507796
 20
57.1378106022
 10
223.8770498886
 20
57.041535869
 10
223.7866863755
 20
56.953217258
 10
223.708230087
 20
56.8209404623
 10
223.6784290839
 20
56.7172452649
 10
223.6732213663
 20
56.5790540282
 10
223.7092265555
 20
56.4346588893
 10
223.735834539
 20
56.3873471066
  0
LWPOLYLINE
  5
274
330
1F
100
AcDbEntity
  8
0
  6
Continuous
 62
     7
370
    25
100
AcDbPolyline
 90
        3
 70
   128
 43
0.0
 10
224.4651331737
 20
55.491840878
 10
224.4960364613
 20
55.3930335502
 10
224.5005676109
 20
55.35090612
  0
LINE
  5
275
330
1F
100
AcDbEntity
  8
0
  6
Continuous
 62
     7
370
    25
100
AcDbLine
 10
228.4166800574
 20
57.9494378758
 30
0.0
 11
228.4166800574
 21
57.9743001716
 31
0.0
  0
LINE
  5
276
330
1F
100
AcDbEntity
  8
0
  6
Continuous
 62
     7
370
    25
100
AcDbLine
 10
228.4166800574
 20
59.7494378758
 30
0.0
 11
228.4166800574
 21
59.7743001716
 31
0.0
  0
LINE
  5
277
330
1F
100
AcDbEntity
  8
0
  6
Continuous
 62
     7
370
    25
100
AcDbLine
 10
223.6922457149
 20
56.5027588189
 30
0.0
 11
222.8956356449
 21
56.4843228901
 31
0.0
  0
LINE
  5
278
330
1F
100
AcDbEntity
  8
0
  6
Continuous
 62
     7
370
    25
100
AcDbLine
 10
178.8956356449
 20
55.4660318866
 30
0.0
 11
173.8377042122
 21
55.348976294
 31
0.0
  0
LINE
  5
279
330
1F
100
AcDbEntity
  8
0
  6
Continuous
 62
     7
370
    25
100
AcDbLine
 10
178.8956356449
 20
69.2445348903
 30
0.0
 11
172.8594525386
 21
69.2445348903
 31
0.0
  0
LINE
  5
27A
330
1F
100
AcDbEntity
  8
0
  6
Continuous
 62
     7
370
    25
100
AcDbLine
 10
172.8577042122
 20
69.2427865639
 30
0.0
 11
172.8577042122
 21
69.2412477567
 31
0.0
  0
ELLIPSE
  5
27B
330
1F
100
AcDbEntity
  8
0
  6
Continuous
 62
     7
370
    25
100
AcDbEllipse
 10
173.3477042122
 20
68.7431396872
 30
0.0
 11
-0.4891587045343897
 21
0.5006102718844403
 31
0.0
210
0.0
220
0.0
230
0.9999999999999999
 40
0.0573325241
 41
6.227222771427128
 42
6.341792833224737
  0
ELLIPSE
  5
27C
330
1F
100
AcDbEntity
  8
0
  6
Continuous
 62
     7
370
    25
100
AcDbEllipse
 10
173.3477042122
 20
68.7431396872
 30
0.0
 11
-0.4891587045343897
 21
0.5006102718844403
 31
0.0
210
0.0
220
0.0
230
0.9999999999999999
 40
0.0573325241
 41
3.200200179634436
 42
6.227222771427128
  0
LWPOLYLINE
  5
27D
330
1F
100
AcDbEntity
  8
0
  6
Continuous
 62
     7
370
    25
100
AcDbPolyline
 90
        3
 70
   128
 43
0.0
 10
224.9776052386
 20
67.5495664479
 10
225.194363351
 20
67.6628989626
 10
225.3406008842
 20
67.684841532
  0
ARC
  5
27E
330
1F
100
AcDbEntity
  8
0
  6
Continuous
 62
     7
370
    25
100
AcDbCircle
 10
223.1161528593
 20
69.20034267
 30
0.0
 40
2.487984544989164
100
AcDbArc
 50
301.4592621446
 51
318.4326947594
  0
ELLIPSE
  5
27F
330
1F
100
AcDbEntity
  8
0
  6
Continuous
 62
     7
370
    25
100
AcDbEllipse
 10
173.3477042122
 20
54.8361098282
 30
0.0
 11
0.4895627232827451
 21
0.4895627232827664
 31
0.0
210
0.0
220
0.0
230
1.0
 40
0.0422752281
 41
3.183842724013089
 42
6.325435377603226
  0
ARC
  5
280
330
1F
100
AcDbEntity
  8
0
  6
Continuous
 62
     7
370
    25
100
AcDbCircle
 10
225.7451948729
 20
54.8361098282
 30
0.0
 40
2.370591644631543
100
AcDbArc
 50
348.0709983765
 51
11.9290016235
  0
LINE
  5
281
330
1F
100
AcDbEntity
  8
0
  6
Continuous
 62
     7
370
    25
100
AcDbLine
 10
179.3520577735
 20
83.8246039203
 30
0.0
 11
181.0956356449
 21
83.977147218
 31
0.0
  0
LINE
  5
282
330
1F
100
AcDbEntity
  8
0
  6
Continuous
 62
     7
370
    25
100
AcDbLine
 10
181.0956356449
 20
38.5864891456
 30
0.0
 11
181.0956356449
 21
54.3461098282
 31
0.0
  0
LINE
  5
283
330
1F
100
AcDbEntity
  8
0
  6
Continuous
 62
     7
370
    25
100
AcDbLine
 10
181.0956356449
 20
55.3261098282
 30
0.0
 11
181.0956356449
 21
68.0736982818
 31
0.0
  0
LINE
  5
284
330
1F
100
AcDbEntity
  8
0
  6
Continuous
 62
     7
370
    25
100
AcDbLine
 10
181.0956356449
 20
69.0539606894
 30
0.0
 11
181.0956356449
 21
83.977147218
 31
0.0
  0
LINE
  5
285
330
1F
100
AcDbEntity
  8
0
  6
Continuous
 62
     7
370
    25
100
AcDbLine
 10
181.0956356449
 20
38.5864891456
 30
0.0
 11
179.3520577735
 21
38.7390324433
 31
0.0
  0
LINE
  5
286
330
1F
100
AcDbEntity
  8
0
  6
Continuous
 62
     7
370
    25
100
AcDbLine
 10
181.0956356449
 20
37.8393431221
 30
0.0
 11
181.0956356449
 21
38.5864891456
 31
0.0
  0
LINE
  5
287
330
1F
100
AcDbEntity
  8
0
  6
Continuous
 62
     7
370
    25
100
AcDbLine
 10
179.3520577735
 20
37.9918864198
 30
0.0
 11
181.0956356449
 21
37.8393431221
 31
0.0
  0
ARC
  5
288
330
1F
100
AcDbEntity
  8
0
  6
Continuous
 62
     7
370
    25
100
AcDbCircle
 10
182.5304381894
 20
38.3654594316
 30
0.0
 40
3.20025918689324
100
AcDbArc
 50
173.2964593206
 51
186.7035406794
  0
LINE
  5
289
330
1F
100
AcDbEntity
  8
0
  6
Continuous
 62
     7
370
    25
100
AcDbLine
 10
181.0956356449
 20
84.7242932416
 30
0.0
 11
179.3520577735
 21
84.5717499439
 31
0.0
  0
LINE
  5
28A
330
1F
100
AcDbEntity
  8
0
  6
Continuous
 62
     7
370
    25
100
AcDbLine
 10
181.0956356449
 20
83.977147218
 30
0.0
 11
181.0956356449
 21
84.7242932416
 31
0.0
  0
ARC
  5
28B
330
1F
100
AcDbEntity
  8
0
  6
Continuous
 62
     7
370
    25
100
AcDbCircle
 10
182.5304381895
 20
84.1981769321
 30
0.0
 40
3.200259186924966
100
AcDbArc
 50
173.2964593207
 51
186.7035406794
  0
LINE
  5
28C
330
1F
100
AcDbEntity
  8
0
  6
Continuous
 62
     7
370
    25
100
AcDbLine
 10
179.3520577735
 20
38.7390324433
 30
0.0
 11
178.8956356449
 21
38.7390324433
 31
0.0
  0
LINE
  5
28D
330
1F
100
AcDbEntity
  8
0
  6
Continuous
 62
     7
370
    25
100
AcDbLine
 10
178.8956356449
 20
83.8246039203
 30
0.0
 11
178.8956356449
 21
69.1048752395
 31
0.0
  0
LINE
  5
28E
330
1F
100
AcDbEntity
  8
0
  6
Continuous
 62
     7
370
    25
100
AcDbLine
 10
178.8956356449
 20
68.1246128319
 30
0.0
 11
178.8956356449
 21
55.3261098282
 31
0.0
  0
LINE
  5
28F
330
1F
100
AcDbEntity
  8
0
  6
Continuous
 62
     7
370
    25
100
AcDbLine
 10
178.8956356449
 20
54.3461098282
 30
0.0
 11
178.8956356449
 21
38.7390324433
 31
0.0
  0
LINE
  5
290
330
1F
100
AcDbEntity
  8
0
  6
Continuous
 62
     7
370
    25
100
AcDbLine
 10
178.8956356449
 20
83.8246039203
 30
0.0
 11
179.3520577735
 21
83.8246039203
 31
0.0
  0
ARC
  5
291
330
1F
100
AcDbEntity
  8
0
  6
Continuous
 62
     7
370
    25
100
AcDbCircle
 10
179.3956356449
 20
38.4899837688
 30
0.0
 40
0.5000000000000357
100
AcDbArc
 50
180.0
 51
265.0
  0
LINE
  5
292
330
1F
100
AcDbEntity
  8
0
  6
Continuous
 62
     7
370
    25
100
AcDbLine
 10
178.8956356449
 20
38.7390324433
 30
0.0
 11
178.8956356449
 21
38.4899837688
 31
0.0
  0
LINE
  5
293
330
1F
100
AcDbEntity
  8
0
  6
Continuous
 62
     7
370
    25
100
AcDbLine
 10
178.8956356449
 20
84.0736525948
 30
0.0
 11
178.8956356449
 21
83.8246039203
 31
0.0
  0
ARC
  5
294
330
1F
100
AcDbEntity
  8
0
  6
Continuous
 62
     7
370
    25
100
AcDbCircle
 10
179.3956356449
 20
84.0736525948
 30
0.0
 40
0.5000000000000192
100
AcDbArc
 50
95.0
 51
180.0
  0
LINE
  5
295
330
1F
100
AcDbEntity
  8
0
  6
Continuous
 62
     7
370
    25
100
AcDbLine
 10
181.5869094417
 20
77.7297575967
 30
0.0
 11
181.5869094417
 21
79.734841823
 31
0.0
  0
LINE
  5
296
330
1F
100
AcDbEntity
  8
0
  6
Continuous
 62
     7
370
    25
100
AcDbLine
 10
181.0956356449
 20
77.7297575967
 30
0.0
 11
181.5869094417
 21
77.7297575967
 31
0.0
  0
ARC
  5
297
330
1F
100
AcDbEntity
  8
0
  6
Continuous
 62
     7
370
    25
100
AcDbCircle
 10
181.5956356449
 20
80.2347656705
 30
0.0
 40
0.5000000000000063
100
AcDbArc
 50
180.0
 51
269.0
  0
LINE
  5
298
330
1F
100
AcDbEntity
  8
0
  6
Continuous
 62
     7
370
    25
100
AcDbLine
 10
181.5869094417
 20
42.8287945407
 30
0.0
 11
181.5869094417
 21
44.8338787669
 31
0.0
  0
ARC
  5
299
330
1F
100
AcDbEntity
  8
0
  6
Continuous
 62
     7
370
    25
100
AcDbCircle
 10
181.5956356449
 20
42.3288706931
 30
0.0
 40
0.5
100
AcDbArc
 50
91.0
 51
180.0
  0
LINE
  5
29A
330
1F
100
AcDbEntity
  8
0
  6
Continuous
 62
     7
370
    25
100
AcDbLine
 10
181.0956356449
 20
44.8338787669
 30
0.0
 11
181.5869094417
 21
44.8338787669
 31
0.0
  0
LINE
  5
29B
330
1F
100
AcDbEntity
  8
0
  6
Continuous
 62
     7
370
    25
100
AcDbLine
 10
217.4043618481
 20
48.1210207548
 30
0.0
 11
217.4043618481
 21
45.4536858883
 31
0.0
  0
LINE
  5
29C
330
1F
100
AcDbEntity
  8
0
  6
Continuous
 62
     7
370
    25
100
AcDbLine
 10
217.4043618481
 20
45.4536858883
 30
0.0
 11
181.8956356449
 21
44.8338787669
 31
0.0
  0
LINE
  5
29D
330
1F
100
AcDbEntity
  8
0
  6
Continuous
 62
     7
370
    25
100
AcDbLine
 10
181.8956356449
 20
44.8338787669
 30
0.0
 11
181.5869094417
 21
44.8338787669
 31
0.0
  0
LINE
  5
29E
330
1F
100
AcDbEntity
  8
0
  6
Continuous
 62
     7
370
    25
100
AcDbLine
 10
181.8956356449
 20
77.7297575967
 30
0.0
 11
181.5869094417
 21
77.7297575967
 31
0.0
  0
LINE
  5
29F
330
1F
100
AcDbEntity
  8
0
  6
Continuous
 62
     7
370
    25
100
AcDbLine
 10
181.8956356449
 20
77.7297575967
 30
0.0
 11
217.4043618481
 21
77.1099504753
 31
0.0
  0
LINE
  5
2A0
330
1F
100
AcDbEntity
  8
0
  6
Continuous
 62
     7
370
    25
100
AcDbLine
 10
217.4043618481
 20
77.1099504753
 30
0.0
 11
217.4043618481
 21
74.4426156088
 31
0.0
  0
LWPOLYLINE
  5
2A1
330
1F
100
AcDbEntity
  8
0
  6
Continuous
 62
     7
370
    25
100
AcDbPolyline
 90
       13
 70
   128
 43
0.0
 10
217.4043618481
 20
74.4426156088
 10
217.0343941052
 20
74.3623033351
 10
216.9418388071
 20
74.3220715681
 10
216.9283389244
 20
74.312009404
 10
216.9186967132
 20
74.3019462265
 10
216.9129125946
 20
74.2918823735
 10
216.9109861191
 20
74.2818181829
 10
216.9129168347
 20
74.2717539924
 10
216.91870429
 20
74.2616901396
 10
216.9283480331
 20
74.2516269623
 10
216.9418476124
 20
74.2415647983
 10
217.034395258
 20
74.2013330287
 10
217.4043618481
 20
74.1210207548
  0
LWPOLYLINE
  5
2A2
330
1F
100
AcDbEntity
  8
0
  6
Continuous
 62
     7
370
    25
100
AcDbPolyline
 90
       13
 70
   128
 43
0.0
 10
217.4043618481
 20
48.4426156088
 10
217.034395258
 20
48.3623033349
 10
216.9418476124
 20
48.3220715654
 10
216.9283480331
 20
48.3120094013
 10
216.91870429
 20
48.301946224
 10
216.9129168347
 20
48.2918823713
 10
216.9109861191
 20
48.2818181807
 10
216.9129125946
 20
48.2717539901
 10
216.9186967132
 20
48.2616901371
 10
216.9283389244
 20
48.2516269596
 10
216.9418388071
 20
48.2415647956
 10
217.0343941052
 20
48.2013330286
 10
217.4043618481
 20
48.1210207548
  0
LINE
  5
2A3
330
1F
100
AcDbEntity
  8
0
  6
Continuous
 62
     7
370
    25
100
AcDbLine
 10
181.8956356449
 20
79.729452987
 30
0.0
 11
181.5869094417
 21
79.734841823
 31
0.0
  0
LWPOLYLINE
  5
2A4
330
1F
100
AcDbEntity
  8
0
  6
Continuous
 62
     7
370
    25
100
AcDbPolyline
 90
        7
 70
   128
 43
0.0
 10
181.8956356449
 20
79.729452987
 10
181.8956690804
 20
79.6878243089
 10
181.8956932495
 20
79.5689166728
 10
181.8956356449
 20
79.1437927093
 10
181.895693033
 20
78.5148862162
 10
181.8956690036
 20
78.1357252163
 10
181.8956356449
 20
77.7297575967
  0
LWPOLYLINE
  5
2A5
330
1F
100
AcDbEntity
  8
0
  6
Continuous
 62
     7
370
    25
100
AcDbPolyline
 90
        7
 70
   128
 43
0.0
 10
181.8956356449
 20
44.8338787669
 10
181.8956690804
 20
44.4279304196
 10
181.8956932495
 20
44.0487742842
 10
181.8956356449
 20
43.4198436544
 10
181.895693033
 20
42.9947299877
 10
181.8956690036
 20
42.8758160479
 10
181.8956356449
 20
42.8341833766
  0
LINE
  5
2A6
330
1F
100
AcDbEntity
  8
0
  6
Continuous
 62
     7
370
    25
100
AcDbLine
 10
181.8956356449
 20
42.8341833766
 30
0.0
 11
181.5869094417
 21
42.8287945407
 31
0.0
  0
LINE
  5
2A7
330
1F
100
AcDbEntity
  8
0
  6
Continuous
 62
     7
370
    25
100
AcDbLine
 10
217.4043618481
 20
79.1096458656
 30
0.0
 11
181.8956356449
 21
79.729452987
 31
0.0
  0
ARC
  5
2A8
330
1F
100
AcDbEntity
  8
0
  6
Continuous
 62
     7
370
    25
100
AcDbCircle
 10
115.9794178013
 20
78.1097981705
 30
0.0
 40
101.4298721793513
100
AcDbArc
 50
359.4351961639
 51
0.5648038361
  0
LINE
  5
2A9
330
1F
100
AcDbEntity
  8
0
  6
Continuous
 62
     7
370
    25
100
AcDbLine
 10
217.4050919081
 20
43.4911840438
 30
0.0
 11
217.4043618481
 21
43.453990498
 31
0.0
  0
LINE
  5
2AA
330
1F
100
AcDbEntity
  8
0
  6
Continuous
 62
     7
370
    25
100
AcDbLine
 10
181.8956356449
 20
42.8341833766
 30
0.0
 11
217.4043618481
 21
43.453990498
 31
0.0
  0
LWPOLYLINE
  5
2AB
330
1F
100
AcDbEntity
  8
0
  6
Continuous
 62
     7
370
    25
100
AcDbPolyline
 90
        5
 70
   128
 43
0.0
 10
218.3912723772
 20
50.7436937716
 10
222.3354349026
 20
50.7178919533
 10
224.8699679302
 20
50.7006694014
 10
227.3901791894
 20
50.6830386251
 10
229.8956356449
 20
50.6650048804
  0
LINE
  5
2AC
330
1F
100
AcDbEntity
  8
0
  6
Continuous
 62
     7
370
    25
100
AcDbLine
 10
229.8956356449
 20
45.8865405953
 30
0.0
 11
229.8956356449
 21
50.6650048804
 31
0.0
  0
ARC
  5
2AD
330
1F
100
AcDbEntity
  8
0
  6
Continuous
 62
     7
370
    25
100
AcDbCircle
 10
215.5972574962
 20
45.9733729076
 30
0.0
 40
2.830100134290138
100
AcDbArc
 50
9.1593393107
 51
50.2028263406
  0
LWPOLYLINE
  5
2AE
330
1F
100
AcDbEntity
  8
0
  6
Continuous
 62
     7
370
    25
100
AcDbPolyline
 90
       11
 70
   128
 43
0.0
 10
217.4087247836
 20
48.1477815713
 10
217.0387570407
 20
48.2147134428
 10
216.9462017425
 20
48.2482550029
 10
216.9230596487
 20
48.2650352408
 10
216.9172755301
 20
48.2734265419
 10
216.9153490545
 20
48.2818181806
 10
216.9172797702
 20
48.2902098192
 10
216.9230672255
 20
48.2986011201
 10
216.9462105479
 20
48.3153813578
 10
217.0387581935
 20
48.3489229207
 10
217.4087247836
 20
48.4158547923
  0
ARC
  5
2AF
330
1F
100
AcDbEntity
  8
0
  6
Continuous
 62
     7
370
    25
100
AcDbCircle
 10
215.5245855997
 20
50.6316829798
 30
0.0
 40
2.908586430016515
100
AcDbArc
 50
310.3748213278
 51
350.263013021
  0
LINE
  5
2B0
330
1F
100
AcDbEntity
  8
0
  6
Continuous
 62
     7
370
    25
100
AcDbLine
 10
218.3912723772
 20
50.1397663804
 30
0.0
 11
218.3912723772
 21
50.7436937716
 31
0.0
  0
ARC
  5
2B1
330
1F
100
AcDbEntity
  8
0
  6
Continuous
 62
     7
370
    25
100
AcDbCircle
 10
215.2347596475
 20
71.7667663789
 30
0.0
 40
3.22418327016026
100
AcDbArc
 50
11.7595344603
 51
47.602631191
  0
LWPOLYLINE
  5
2B2
330
1F
100
AcDbEntity
  8
0
  6
Continuous
 62
     7
370
    25
100
AcDbPolyline
 90
       11
 70
   128
 43
0.0
 10
217.4087247836
 20
74.1477815713
 10
217.0387581935
 20
74.2147134429
 10
216.9462105479
 20
74.2482550059
 10
216.9230672255
 20
74.2650352435
 10
216.9172797702
 20
74.2734265444
 10
216.9153490545
 20
74.2818181831
 10
216.9172755301
 20
74.2902098218
 10
216.9230596487
 20
74.2986011228
 10
216.9462017425
 20
74.3153813608
 10
217.0387570407
 20
74.3489229209
 10
217.4087247836
 20
74.4158547923
  0
ARC
  5
2B3
330
1F
100
AcDbEntity
  8
0
  6
Continuous
 62
     7
370
    25
100
AcDbCircle
 10
215.6034922216
 20
76.5867099592
 30
0.0
 40
2.823380377927827
100
AcDbArc
 50
309.7461209095
 51
350.8917134393
  0
LINE
  5
2B4
330
1F
100
AcDbEntity
  8
0
  6
Continuous
 62
     7
370
    25
100
AcDbLine
 10
229.8956356449
 20
71.8986314832
 30
0.0
 11
229.8956356449
 21
76.6770957683
 31
0.0
  0
LWPOLYLINE
  5
2B5
330
1F
100
AcDbEntity
  8
0
  6
Continuous
 62
     7
370
    25
100
AcDbPolyline
 90
        5
 70
   128
 43
0.0
 10
229.8956356449
 20
71.8986314832
 10
226.0173200161
 20
71.8709306582
 10
223.4892430387
 20
71.853521906
 10
220.9470815488
 20
71.8365241941
 10
218.3912723772
 20
71.819942592
  0
LINE
  5
2B6
330
1F
100
AcDbEntity
  8
0
  6
Continuous
 62
     7
370
    25
100
AcDbLine
 10
218.3912723772
 20
71.819942592
 30
0.0
 11
218.3912723772
 21
72.4238699832
 31
0.0
  0
ARC
  5
2B7
330
1F
100
AcDbEntity
  8
0
  6
Continuous
 62
     7
370
    25
100
AcDbCircle
 10
246.0222656998
 20
79.0945842693
 30
0.0
 40
28.99353778484081
100
AcDbArc
 50
189.2329277391
 51
189.2865095326
  0
ARC
  5
2B8
330
1F
100
AcDbEntity
  8
0
  6
Continuous
 62
     7
370
    25
100
AcDbCircle
 10
246.0222658055
 20
69.4690520772
 30
0.0
 40
28.99353789197373
100
AcDbArc
 50
170.7134904676
 51
170.7670722609
  0
ARC
  5
2B9
330
1F
100
AcDbEntity
  8
0
  6
Continuous
 62
     7
370
    25
100
AcDbCircle
 10
246.0222657964
 20
43.4690520787
 30
0.0
 40
28.99353788267661
100
AcDbArc
 50
170.7134904676
 51
170.767072261
  0
ARC
  5
2BA
330
1F
100
AcDbEntity
  8
0
  6
Continuous
 62
     7
370
    25
100
AcDbCircle
 10
246.0222658009
 20
53.0945842857
 30
0.0
 40
28.99353788732006
100
AcDbArc
 50
189.2329277391
 51
189.2865095324
  0
LINE
  5
2BB
330
1F
100
AcDbEntity
  8
0
  6
Continuous
 62
     7
370
    25
100
AcDbLine
 10
217.4043618481
 20
77.1099504753
 30
0.0
 11
217.8956356449
 21
77.1099504753
 31
0.0
  0
LINE
  5
2BC
330
1F
100
AcDbEntity
  8
0
  6
Continuous
 62
     7
370
    25
100
AcDbLine
 10
217.8956356449
 20
76.5119858639
 30
0.0
 11
217.8956356449
 21
77.1099504753
 31
0.0
  0
ARC
  5
2BD
330
1F
100
AcDbEntity
  8
0
  6
Continuous
 62
     7
370
    25
100
AcDbCircle
 10
212.6924314479
 20
76.6542399059
 30
0.0
 40
5.205148425145619
100
AcDbArc
 50
334.8561922333
 51
358.4339406847
  0
LINE
  5
2BE
330
1F
100
AcDbEntity
  8
0
  6
Continuous
 62
     7
370
    25
100
AcDbLine
 10
217.8956356449
 20
45.4536858883
 30
0.0
 11
217.8956356449
 21
46.0516504998
 31
0.0
  0
LINE
  5
2BF
330
1F
100
AcDbEntity
  8
0
  6
Continuous
 62
     7
370
    25
100
AcDbLine
 10
217.8956356449
 20
45.4536858883
 30
0.0
 11
217.4043618481
 21
45.4536858883
 31
0.0
  0
ARC
  5
2C0
330
1F
100
AcDbEntity
  8
0
  6
Continuous
 62
     7
370
    25
100
AcDbCircle
 10
211.9790940328
 20
45.740048329
 30
0.0
 40
5.924741391925493
100
AcDbArc
 50
3.0147695909
 51
23.6950974912
  0
ARC
  5
2C1
330
1F
100
AcDbEntity
  8
0
  6
Continuous
 62
     7
370
    25
100
AcDbCircle
 10
212.4616350321
 20
71.8546047977
 30
0.0
 40
5.43757203799515
100
AcDbArc
 50
2.0767282571
 51
24.6331388249
  0
LINE
  5
2C2
330
1F
100
AcDbEntity
  8
0
  6
Continuous
 62
     7
370
    25
100
AcDbLine
 10
217.8956356449
 20
50.5119858639
 30
0.0
 11
217.8956356449
 21
54.3461098282
 31
0.0
  0
LINE
  5
2C3
330
1F
100
AcDbEntity
  8
0
  6
Continuous
 62
     7
370
    25
100
AcDbLine
 10
217.8956356449
 20
55.3261098282
 30
0.0
 11
217.8956356449
 21
67.2220367152
 31
0.0
  0
LINE
  5
2C4
330
1F
100
AcDbEntity
  8
0
  6
Continuous
 62
     7
370
    25
100
AcDbLine
 10
217.8956356449
 20
68.2022991228
 30
0.0
 11
217.8956356449
 21
72.0516504998
 31
0.0
  0
ARC
  5
2C5
330
1F
100
AcDbEntity
  8
0
  6
Continuous
 62
     7
370
    25
100
AcDbCircle
 10
213.1521029144
 20
50.5451127229
 30
0.0
 40
4.743648401155962
100
AcDbArc
 50
333.690256299
 51
359.5998766189
  0
ARC
  5
2C6
330
1F
100
AcDbEntity
  8
0
  6
Continuous
 62
     7
370
    25
100
AcDbCircle
 10
218.3387723485
 20
76.5859563888
 30
0.0
 40
0.4492680454248729
100
AcDbArc
 50
189.4767142618
 51
276.7107343668
  0
ARC
  5
2C7
330
1F
100
AcDbEntity
  8
0
  6
Continuous
 62
     7
370
    25
100
AcDbCircle
 10
218.3387723485
 20
45.9776799748
 30
0.0
 40
0.4492680454248454
100
AcDbArc
 50
83.2892656332
 51
170.5232857382
  0
ARC
  5
2C8
330
1F
100
AcDbEntity
  8
0
  6
Continuous
 62
     7
370
    25
100
AcDbCircle
 10
218.3387723485
 20
71.9776799748
 30
0.0
 40
0.4492680454248454
100
AcDbArc
 50
83.2892656332
 51
170.5232857382
  0
ARC
  5
2C9
330
1F
100
AcDbEntity
  8
0
  6
Continuous
 62
     7
370
    25
100
AcDbCircle
 10
218.3387723485
 20
50.5859563888
 30
0.0
 40
0.4492680454248075
100
AcDbArc
 50
189.4767142618
 51
276.7107343668
  0
ARC
  5
2CA
330
1F
100
AcDbEntity
  8
0
  6
Continuous
 62
     7
370
    25
100
AcDbCircle
 10
217.3956356449
 20
78.6097220181
 30
0.0
 40
0.4999999999999807
100
AcDbArc
 50
10.9465897791
 51
44.9264320259
  0
LWPOLYLINE
  5
2CB
330
1F
100
AcDbEntity
  8
0
  6
Continuous
 62
     7
370
    25
100
AcDbPolyline
 90
        3
 70
   128
 43
0.0
 10
217.590652378
 20
79.0701223589
 10
217.5006582356
 20
79.0985678582
 10
217.4043618481
 20
79.1096458656
  0
LINE
  5
2CC
330
1F
100
AcDbEntity
  8
0
  6
Continuous
 62
     7
370
    25
100
AcDbLine
 10
217.8956356449
 20
77.1099504753
 30
0.0
 11
217.8956356449
 21
78.6097220181
 31
0.0
  0
LINE
  5
2CD
330
1F
100
AcDbEntity
  8
0
  6
Continuous
 62
     7
370
    25
100
AcDbLine
 10
217.8956356449
 20
43.9539143456
 30
0.0
 11
217.8956356449
 21
45.4536858883
 31
0.0
  0
ARC
  5
2CE
330
1F
100
AcDbEntity
  8
0
  6
Continuous
 62
     7
370
    25
100
AcDbCircle
 10
217.3956356449
 20
43.9539143456
 30
0.0
 40
0.5000000000000058
100
AcDbArc
 50
271.0
 51
349.0333178618
  0
ARC
  5
2CF
330
1F
100
AcDbEntity
  8
0
  6
Continuous
 62
     7
370
    25
100
AcDbCircle
 10
218.3922038726
 20
71.323363809
 30
0.0
 40
0.4965796567315698
100
AcDbArc
 50
90.1074767876
 51
179.6112685496
  0
ARC
  5
2D0
330
1F
100
AcDbEntity
  8
0
  6
Continuous
 62
     7
370
    25
100
AcDbCircle
 10
218.3922038726
 20
51.2402725547
 30
0.0
 40
0.4965796567317335
100
AcDbArc
 50
180.3887314504
 51
269.8925232124
  0
ARC
  5
2D1
330
1F
100
AcDbEntity
  8
0
  6
Continuous
 62
     7
370
    25
100
AcDbCircle
 10
228.4476915767
 20
71.4843593126
 30
0.0
 40
10.06201685818717
100
AcDbArc
 50
178.0887458077
 51
180.8976031137
  0
LINE
  5
2D2
330
1F
100
AcDbEntity
  8
0
  6
Continuous
 62
     7
370
    25
100
AcDbLine
 10
218.3869094417
 20
71.3267328992
 30
0.0
 11
217.8956356449
 21
71.3267328992
 31
0.0
  0
LINE
  5
2D3
330
1F
100
AcDbEntity
  8
0
  6
Continuous
 62
     7
370
    25
100
AcDbLine
 10
217.8956356449
 20
51.2369034645
 30
0.0
 11
218.3869094417
 21
51.2369034645
 31
0.0
  0
ARC
  5
2D4
330
1F
100
AcDbEntity
  8
0
  6
Continuous
 62
     7
370
    25
100
AcDbCircle
 10
228.4476915765
 20
51.0792770511
 30
0.0
 40
10.06201685802638
100
AcDbArc
 50
179.1023968863
 51
181.9112541923
  0
LWPOLYLINE
  5
2D5
330
1F
100
AcDbEntity
  8
0
  6
Continuous
 62
     7
370
    25
100
AcDbPolyline
 90
        5
 70
   128
 43
0.0
 10
229.8956356449
 20
51.162431449
 10
226.0158630849
 20
51.1889139702
 10
223.4868284331
 20
51.2054141379
 10
220.9436981077
 20
51.2214115529
 10
218.3869094417
 20
51.2369034645
  0
LINE
  5
2D6
330
1F
100
AcDbEntity
  8
0
  6
Continuous
 62
     7
370
    25
100
AcDbLine
 10
229.8956356449
 20
50.6650048804
 30
0.0
 11
229.8956356449
 21
51.162431449
 31
0.0
  0
LWPOLYLINE
  5
2D7
330
1F
100
AcDbEntity
  8
0
  6
Continuous
 62
     7
370
    25
100
AcDbPolyline
 90
        5
 70
   128
 43
0.0
 10
218.3869094417
 20
71.3267328992
 10
222.3325812707
 20
71.3508881814
 10
224.868077108
 20
71.3671601717
 10
227.3892397433
 20
71.3839333778
 10
229.8956356449
 20
71.4012049147
  0
LINE
  5
2D8
330
1F
100
AcDbEntity
  8
0
  6
Continuous
 62
     7
370
    25
100
AcDbLine
 10
229.8956356449
 20
71.4012049147
 30
0.0
 11
229.8956356449
 21
71.8986314832
 31
0.0
  0
LINE
  5
2D9
330
1F
100
AcDbEntity
  8
0
  6
Continuous
 62
     7
370
    25
100
AcDbLine
 10
226.8956356449
 20
68.7818181818
 30
0.0
 11
226.8956356449
 21
67.9940123267
 31
0.0
  0
LINE
  5
2DA
330
1F
100
AcDbEntity
  8
0
  6
Continuous
 62
     7
370
    25
100
AcDbLine
 10
226.8956356449
 20
66.8520508551
 30
0.0
 11
226.8956356449
 21
66.032293703
 31
0.0
  0
LINE
  5
2DB
330
1F
100
AcDbEntity
  8
0
  6
Continuous
 62
     7
370
    25
100
AcDbLine
 10
222.8956356449
 20
68.7818181818
 30
0.0
 11
226.8956356449
 21
68.7818181818
 31
0.0
  0
LINE
  5
2DC
330
1F
100
AcDbEntity
  8
0
  6
Continuous
 62
     7
370
    25
100
AcDbLine
 10
222.8956356449
 20
53.7818181818
 30
0.0
 11
222.8956356449
 21
54.3461098282
 31
0.0
  0
LINE
  5
2DD
330
1F
100
AcDbEntity
  8
0
  6
Continuous
 62
     7
370
    25
100
AcDbLine
 10
222.8956356449
 20
55.3261098282
 30
0.0
 11
222.8956356449
 21
67.1063218285
 31
0.0
  0
LINE
  5
2DE
330
1F
100
AcDbEntity
  8
0
  6
Continuous
 62
     7
370
    25
100
AcDbLine
 10
222.8956356449
 20
68.0865842361
 30
0.0
 11
222.8956356449
 21
68.7818181818
 31
0.0
  0
LINE
  5
2DF
330
1F
100
AcDbEntity
  8
0
  6
Continuous
 62
     7
370
    25
100
AcDbLine
 10
226.8956356449
 20
53.7818181818
 30
0.0
 11
222.8956356449
 21
53.7818181818
 31
0.0
  0
LINE
  5
2E0
330
1F
100
AcDbEntity
  8
0
  6
Continuous
 62
     7
370
    25
100
AcDbLine
 10
226.8956356449
 20
56.0520508551
 30
0.0
 11
226.8956356449
 21
55.3261098282
 31
0.0
  0
LINE
  5
2E1
330
1F
100
AcDbEntity
  8
0
  6
Continuous
 62
     7
370
    25
100
AcDbLine
 10
226.8956356449
 20
54.3461098282
 30
0.0
 11
226.8956356449
 21
53.7818181818
 31
0.0
  0
LINE
  5
2E2
330
1F
100
AcDbEntity
  8
0
  6
Continuous
 62
     7
370
    25
100
AcDbLine
 10
229.8956356449
 20
51.162431449
 30
0.0
 11
229.8956356449
 21
54.5037605539
 31
0.0
  0
LINE
  5
2E3
330
1F
100
AcDbEntity
  8
0
  6
Continuous
 62
     7
370
    25
100
AcDbLine
 10
229.8956356449
 20
55.4857974581
 30
0.0
 11
229.8956356449
 21
56.3037605539
 31
0.0
  0
LINE
  5
2E4
330
1F
100
AcDbEntity
  8
0
  6
Continuous
 62
     7
370
    25
100
AcDbLine
 10
229.8956356449
 20
66.2857974581
 30
0.0
 11
229.8956356449
 21
67.1037605539
 31
0.0
  0
LINE
  5
2E5
330
1F
100
AcDbEntity
  8
0
  6
Continuous
 62
     7
370
    25
100
AcDbLine
 10
229.8956356449
 20
68.0857974581
 30
0.0
 11
229.8956356449
 21
71.4012049147
 31
0.0
  0
LWPOLYLINE
  5
2E6
330
1F
100
AcDbEntity
  8
0
  6
Continuous
 62
     7
370
    25
100
AcDbPolyline
 90
        3
 70
   128
 43
0.0
 10
217.413087719
 20
43.1183756223
 10
217.6895507128
 20
43.1407233544
 10
217.8956356449
 20
43.1825138218
  0
ARC
  5
2E7
330
1F
100
AcDbEntity
  8
0
  6
Continuous
 62
     7
370
    25
100
AcDbCircle
 10
203.6458418671
 20
42.9283528559
 30
0.0
 40
13.76855719017928
100
AcDbArc
 50
0.7907762951
 51
2.1878936553
  0
LINE
  5
2E8
330
1F
100
AcDbEntity
  8
0
  6
Continuous
 62
     7
370
    25
100
AcDbLine
 10
217.8956356449
 20
43.1825138218
 30
0.0
 11
217.8956356449
 21
43.9539143456
 31
0.0
  0
ARC
  5
2E9
330
1F
100
AcDbEntity
  8
0
  6
Continuous
 62
     7
370
    25
100
AcDbCircle
 10
203.6458507423
 20
79.635283277
 30
0.0
 40
13.76854831269571
100
AcDbArc
 50
357.8121058945
 51
359.2092241544
  0
LWPOLYLINE
  5
2EA
330
1F
100
AcDbEntity
  8
0
  6
Continuous
 62
     7
370
    25
100
AcDbPolyline
 90
        3
 70
   128
 43
0.0
 10
217.8956356449
 20
79.3811225418
 10
217.6310711647
 20
79.4307623267
 10
217.413087719
 20
79.4452607413
  0
LINE
  5
2EB
330
1F
100
AcDbEntity
  8
0
  6
Continuous
 62
     7
370
    25
100
AcDbLine
 10
217.8956356449
 20
78.6941723036
 30
0.0
 11
217.8956356449
 21
79.3811225418
 31
0.0
  0
ARC
  5
2EC
330
1F
100
AcDbEntity
  8
0
  6
Continuous
 62
     7
370
    25
100
AcDbCircle
 10
220.6520311991
 20
68.3280017706
 30
0.0
 40
3.93699499974969
100
AcDbArc
 50
355.9161776737
 51
6.6191837893
  0
ARC
  5
2ED
330
1F
100
AcDbEntity
  8
0
  6
Continuous
 62
     7
370
    25
100
AcDbCircle
 10
224.244752981
 20
68.3338307811
 30
0.0
 40
0.5383566120246419
100
AcDbArc
 50
123.6809292283
 51
209.8134590352
  0
LWPOLYLINE
  5
2EE
330
1F
100
AcDbEntity
  8
0
  6
Continuous
 62
     7
370
    25
100
AcDbPolyline
 90
        6
 70
   128
 43
0.0
 10
181.5912723772
 20
42.6025152154
 10
187.4670813964
 20
42.6883767168
 10
193.4408652141
 20
42.7751970424
 10
201.3041627292
 20
42.8887176175
 10
209.3008201994
 20
43.0032290242
 10
217.413087719
 20
43.1183756223
  0
LINE
  5
2EF
330
1F
100
AcDbEntity
  8
0
  6
Continuous
 62
     7
370
    25
100
AcDbLine
 10
181.5912723772
 20
42.6025152154
 30
0.0
 11
181.5886858022
 21
42.7705463051
 31
0.0
  0
LINE
  5
2F0
330
1F
100
AcDbEntity
  8
0
  6
Continuous
 62
     7
370
    25
100
AcDbLine
 10
181.5886857999
 20
79.7930899415
 30
0.0
 11
181.5912723772
 21
79.9611211482
 31
0.0
  0
LWPOLYLINE
  5
2F1
330
1F
100
AcDbEntity
  8
0
  6
Continuous
 62
     7
370
    25
100
AcDbPolyline
 90
        5
 70
   128
 43
0.0
 10
217.413087719
 20
79.4452607413
 10
204.9235350771
 20
79.622969696
 10
196.9974372263
 20
79.7369843626
 10
189.2142583036
 20
79.8498167489
 10
181.5912723772
 20
79.9611211482
  0
ARC
  5
2F2
330
1F
100
AcDbEntity
  8
0
  6
Continuous
 62
     7
370
    25
100
AcDbCircle
 10
181.5444284472
 20
42.1515948287
 30
0.0
 40
0.4533470512864424
100
AcDbArc
 50
84.0690942445
 51
171.8717910392
  0
ARC
  5
2F3
330
1F
100
AcDbEntity
  8
0
  6
Continuous
 62
     7
370
    25
100
AcDbCircle
 10
181.5444284472
 20
80.4120415349
 30
0.0
 40
0.4533470512864576
100
AcDbArc
 50
188.1282089608
 51
275.9309057554
  0
LINE
  5
2F4
330
1F
100
AcDbEntity
  8
0
  6
Continuous
 62
     7
370
    25
100
AcDbLine
 10
217.8956356449
 20
42.2818181818
 30
0.0
 11
217.8956356449
 21
43.1825138218
 31
0.0
  0
LINE
  5
2F5
330
1F
100
AcDbEntity
  8
0
  6
Continuous
 62
     7
370
    25
100
AcDbLine
 10
217.8956356449
 20
79.3811225418
 30
0.0
 11
217.8956356449
 21
80.2818181818
 31
0.0
  0
LWPOLYLINE
  5
2F6
330
1F
100
AcDbEntity
  8
0
  6
Continuous
 62
     7
370
    25
100
AcDbPolyline
 90
        3
 70
   128
 43
0.0
 10
224.5103094848
 20
55.3325707103
 10
224.4848295395
 20
55.4420497722
 10
224.4213888866
 20
55.569450897
  0
LWPOLYLINE
  5
2F7
330
1F
100
AcDbEntity
  8
0
  6
Continuous
 62
     7
370
    25
100
AcDbPolyline
 90
        3
 70
   128
 43
0.0
 10
224.5052893827
 20
55.3639420487
 10
224.5073933537
 20
55.4420497722
 10
224.5127754745
 20
55.552582345
  0
ELLIPSE
  5
2F8
330
1F
100
AcDbEntity
  8
0
  6
Continuous
 62
     7
370
    25
100
AcDbEllipse
 10
173.3477042122
 20
68.7545348903
 30
0.0
 11
0.489562723282745
 21
-0.4895627232827734
 31
0.0
210
0.0
220
0.0
230
0.9999999999999998
 40
0.0422752281
 41
3.099342583167172
 42
3.199450209924972
  0
LINE
  5
2F9
330
1F
100
AcDbEntity
  8
0
  6
Continuous
 62
     7
370
    25
100
AcDbLine
 10
179.3520577735
 20
38.7390324433
 30
0.0
 11
179.3520577735
 21
54.3461098282
 31
0.0
  0
LINE
  5
2FA
330
1F
100
AcDbEntity
  8
0
  6
Continuous
 62
     7
370
    25
100
AcDbLine
 10
179.3520577735
 20
55.3261098282
 30
0.0
 11
179.3520577735
 21
68.1140498649
 31
0.0
  0
LINE
  5
2FB
330
1F
100
AcDbEntity
  8
0
  6
Continuous
 62
     7
370
    25
100
AcDbLine
 10
179.3520577735
 20
69.0943122725
 30
0.0
 11
179.3520577735
 21
83.8246039203
 31
0.0
  0
LINE
  5
2FC
330
1F
100
AcDbEntity
  8
0
  6
Continuous
 62
     7
370
    25
100
AcDbLine
 10
181.5869094417
 20
44.8338787669
 30
0.0
 11
181.5869094417
 21
54.3461098282
 31
0.0
  0
LINE
  5
2FD
330
1F
100
AcDbEntity
  8
0
  6
Continuous
 62
     7
370
    25
100
AcDbLine
 10
181.5869094417
 20
55.3261098282
 30
0.0
 11
181.5869094417
 21
68.0623287434
 31
0.0
  0
LINE
  5
2FE
330
1F
100
AcDbEntity
  8
0
  6
Continuous
 62
     7
370
    25
100
AcDbLine
 10
181.5869094417
 20
69.042591151
 30
0.0
 11
181.5869094417
 21
77.7297575967
 31
0.0
  0
LINE
  5
2FF
330
1F
100
AcDbEntity
  8
0
  6
Continuous
 62
     7
370
    25
100
AcDbLine
 10
217.4043618481
 20
74.1210207548
 30
0.0
 11
217.4043618481
 21
68.2136686612
 31
0.0
  0
LINE
  5
300
330
1F
100
AcDbEntity
  8
0
  6
Continuous
 62
     7
370
    25
100
AcDbLine
 10
217.4043618481
 20
67.2334062536
 30
0.0
 11
217.4043618481
 21
55.3261098282
 31
0.0
  0
LINE
  5
301
330
1F
100
AcDbEntity
  8
0
  6
Continuous
 62
     7
370
    25
100
AcDbLine
 10
217.4043618481
 20
54.3461098282
 30
0.0
 11
217.4043618481
 21
48.4426156088
 31
0.0
  0
ARC
  5
302
330
1F
100
AcDbEntity
  8
0
  6
Continuous
 62
     7
370
    25
100
AcDbCircle
 10
110.1162685423
 20
44.4325231499
 30
0.0
 40
107.2929528838697
100
AcDbArc
 50
359.4973066881
 51
0.5453219143
  0
LINE
  5
303
330
1F
100
AcDbEntity
  8
0
  6
Continuous
 62
     7
370
    25
100
AcDbLine
 10
218.3912723772
 20
45.7861435381
 30
0.0
 11
218.3912723772
 21
46.4238699832
 31
0.0
  0
LINE
  5
304
330
1F
100
AcDbEntity
  8
0
  6
Continuous
 62
     7
370
    25
100
AcDbLine
 10
218.3912723772
 20
76.1397663804
 30
0.0
 11
218.3912723772
 21
76.7774928256
 31
0.0
  0
LINE
  5
305
330
1F
100
AcDbEntity
  8
0
  6
Continuous
 62
     7
370
    25
100
AcDbLine
 10
218.3869094417
 20
51.2369034645
 30
0.0
 11
218.3869094417
 21
54.3461098282
 31
0.0
  0
LINE
  5
306
330
1F
100
AcDbEntity
  8
0
  6
Continuous
 62
     7
370
    25
100
AcDbLine
 10
218.3869094417
 20
55.3261098282
 30
0.0
 11
218.3869094417
 21
67.2106671769
 31
0.0
  0
LINE
  5
307
330
1F
100
AcDbEntity
  8
0
  6
Continuous
 62
     7
370
    25
100
AcDbLine
 10
218.3869094417
 20
68.1909295845
 30
0.0
 11
218.3869094417
 21
71.3267328992
 31
0.0
  0
LINE
  5
308
330
1F
100
AcDbEntity
  8
0
  6
Continuous
 62
     7
370
    25
100
AcDbLine
 10
181.5873495648
 20
79.74927379
 30
0.0
 11
181.5886857999
 21
79.7930899415
 31
0.0
  0
LINE
  5
309
330
1F
100
AcDbEntity
  8
0
  6
Continuous
 62
     7
370
    25
100
AcDbLine
 10
181.5912723772
 20
41.9649948034
 30
0.0
 11
181.5912723772
 21
42.6025152154
 31
0.0
  0
LINE
  5
30A
330
1F
100
AcDbEntity
  8
0
  6
Continuous
 62
     7
370
    25
100
AcDbLine
 10
181.5912723772
 20
79.9611211482
 30
0.0
 11
181.5912723772
 21
80.5986415603
 31
0.0
  0
ENDSEC
  0
SECTION
  2
OBJECTS
  0
DICTIONARY
  5
C
330
0
100
AcDbDictionary
281
     1
  3
ACAD_GROUP
350
D
  3
ACAD_LAYOUT
350
1A
  3
ACAD_MLINESTYLE
350
17
  3
ACAD_PLOTSETTINGS
350
19
  3
ACAD_PLOTSTYLENAME
350
E
  3
ACAD_SCALELIST
350
47
  3
DWGPROPS
350
30B
  0
DICTIONARY
  5
D
102
{ACAD_REACTORS
330
C
102
}
330
C
100
AcDbDictionary
281
     1
  0
DICTIONARY
  5
1A
102
{ACAD_REACTORS
330
C
102
}
330
C
100
AcDbDictionary
281
     1
  3
Layout1
350
1E
  3
Layout2
350
26
  3
Model
350
22
  0
DICTIONARY
  5
17
102
{ACAD_REACTORS
330
C
102
}
330
C
100
AcDbDictionary
281
     1
  3
Standard
350
18
  0
DICTIONARY
  5
19
102
{ACAD_REACTORS
330
C
102
}
330
C
100
AcDbDictionary
281
     1
  0
ACDBDICTIONARYWDFLT
  5
E
102
{ACAD_REACTORS
330
C
102
}
330
C
100
AcDbDictionary
281
     1
  3
Normal
350
F
100
AcDbDictionaryWithDefault
340
F
  0
DICTIONARY
  5
47
102
{ACAD_REACTORS
330
C
102
}
330
C
100
AcDbDictionary
281
     1
  3
A0
350
48
  3
A1
350
49
  3
A2
350
4A
  3
A3
350
4B
  3
A4
350
4C
  3
A5
350
4D
  3
A6
350
4E
  3
A7
350
4F
  3
A8
350
50
  3
A9
350
51
  3
B0
350
52
  3
B1
350
53
  3
B2
350
54
  3
B3
350
55
  3
B4
350
56
  3
B5
350
57
  3
B6
350
58
  0
XRECORD
  5
30B
102
{ACAD_REACTORS
330
C
102
}
330
C
100
AcDbXrecord
280
     1
  1
DWGPROPS COOKIE
  2

  3

  4

  6

  7

  8
SKriemadi
  9

300
=
301
=
302
=
303
=
304
=
305
=
306
=
307
=
308
=
309
=
 40
0.0
 41
2460088.433355428
 42
2460088.433355752
  1

 90
        0
  0
LAYOUT
  5
1E
102
{ACAD_REACTORS
330
1A
102
}
330
1A
100
AcDbPlotSettings
  1

  2
none_device
  4

  6

 40
0.0
 41
0.0
 42
0.0
 43
0.0
 44
0.0
 45
0.0
 46
0.0
 47
0.0
 48
0.0
 49
0.0
140
0.0
141
0.0
142
1.0
143
1.0
 70
   688
 72
     1
 73
     0
 74
     5
  7

 75
    16
147
1.0
148
0.0
149
0.0
100
AcDbLayout
  1
Layout1
 70
     1
 71
     1
 10
0.0
 20
0.0
 11
420.0
 21
297.0
 12
0.0
 22
0.0
 32
0.0
 14
1.0000000000E+20
 24
1.0000000000E+20
 34
1.0000000000E+20
 15
-1.0000000000E+20
 25
-1.0000000000E+20
 35
-1.0000000000E+20
146
0.0
 13
0.0
 23
0.0
 33
0.0
 16
1.0
 26
0.0
 36
0.0
 17
0.0
 27
1.0
 37
0.0
 76
     0
330
1B
  0
LAYOUT
  5
26
102
{ACAD_REACTORS
330
1A
102
}
330
1A
100
AcDbPlotSettings
  1

  2
none_device
  4

  6

 40
0.0
 41
0.0
 42
0.0
 43
0.0
 44
0.0
 45
0.0
 46
0.0
 47
0.0
 48
0.0
 49
0.0
140
0.0
141
0.0
142
1.0
143
1.0
 70
   688
 72
     1
 73
     0
 74
     5
  7

 75
    16
147
1.0
148
0.0
149
0.0
100
AcDbLayout
  1
Layout2
 70
     1
 71
     2
 10
0.0
 20
0.0
 11
0.0
 21
0.0
 12
0.0
 22
0.0
 32
0.0
 14
0.0
 24
0.0
 34
0.0
 15
0.0
 25
0.0
 35
0.0
146
0.0
 13
0.0
 23
0.0
 33
0.0
 16
1.0
 26
0.0
 36
0.0
 17
0.0
 27
1.0
 37
0.0
 76
     0
330
23
  0
LAYOUT
  5
22
102
{ACAD_REACTORS
330
1A
102
}
330
1A
100
AcDbPlotSettings
  1

  2
none_device
  4
Letter_(8.50_x_11.00_Inches)
  6

 40
6.35
 41
6.35
 42
6.35000508
 43
6.35000508
 44
215.9
 45
279.4
 46
0.0
 47
0.0
 48
0.0
 49
0.0
140
0.0
141
0.0
142
1.0
143
1.0
 70
  1712
 72
     1
 73
     0
 74
     0
  7

 75
     0
147
1.0
148
0.0
149
0.0
100
AcDbLayout
  1
Model
 70
     1
 71
     0
 10
0.0
 20
0.0
 11
297.0
 21
210.0
 12
0.0
 22
0.0
 32
0.0
 14
0.0
 24
0.0
 34
0.0
 15
297.0
 25
210.0
 35
0.0
146
0.0
 13
0.0
 23
0.0
 33
0.0
 16
1.0
 26
0.0
 36
0.0
 17
0.0
 27
1.0
 37
0.0
 76
     0
330
1F
331
29
  0
MLINESTYLE
  5
18
102
{ACAD_REACTORS
330
17
102
}
330
17
100
AcDbMlineStyle
  2
Standard
 70
     0
  3

 62
   256
 51
90.0
 52
90.0
 71
     2
 49
0.5
 62
   256
  6
BYLAYER
 49
-0.5
 62
   256
  6
BYLAYER
  0
ACDBPLACEHOLDER
  5
F
102
{ACAD_REACTORS
330
E
102
}
330
E
  0
SCALE
  5
48
102
{ACAD_REACTORS
330
47
102
}
330
47
100
AcDbScale
 70
     0
300
1:1
140
1.0
141
1.0
290
     1
  0
SCALE
  5
49
102
{ACAD_REACTORS
330
47
102
}
330
47
100
AcDbScale
 70
     0
300
1:2
140
1.0
141
2.0
290
     0
  0
SCALE
  5
4A
102
{ACAD_REACTORS
330
47
102
}
330
47
100
AcDbScale
 70
     0
300
1:4
140
1.0
141
4.0
290
     0
  0
SCALE
  5
4B
102
{ACAD_REACTORS
330
47
102
}
330
47
100
AcDbScale
 70
     0
300
1:5
140
1.0
141
5.0
290
     0
  0
SCALE
  5
4C
102
{ACAD_REACTORS
330
47
102
}
330
47
100
AcDbScale
 70
     0
300
1:8
140
1.0
141
8.0
290
     0
  0
SCALE
  5
4D
102
{ACAD_REACTORS
330
47
102
}
330
47
100
AcDbScale
 70
     0
300
1:10
140
1.0
141
10.0
290
     0
  0
SCALE
  5
4E
102
{ACAD_REACTORS
330
47
102
}
330
47
100
AcDbScale
 70
     0
300
1:16
140
1.0
141
16.0
290
     0
  0
SCALE
  5
4F
102
{ACAD_REACTORS
330
47
102
}
330
47
100
AcDbScale
 70
     0
300
1:20
140
1.0
141
20.0
290
     0
  0
SCALE
  5
50
102
{ACAD_REACTORS
330
47
102
}
330
47
100
AcDbScale
 70
     0
300
1:30
140
1.0
141
30.0
290
     0
  0
SCALE
  5
51
102
{ACAD_REACTORS
330
47
102
}
330
47
100
AcDbScale
 70
     0
300
1:40
140
1.0
141
40.0
290
     0
  0
SCALE
  5
52
102
{ACAD_REACTORS
330
47
102
}
330
47
100
AcDbScale
 70
     0
300
1:50
140
1.0
141
50.0
290
     0
  0
SCALE
  5
53
102
{ACAD_REACTORS
330
47
102
}
330
47
100
AcDbScale
 70
     0
300
1:100
140
1.0
141
100.0
290
     0
  0
SCALE
  5
54
102
{ACAD_REACTORS
330
47
102
}
330
47
100
AcDbScale
 70
     0
300
2:1
140
2.0
141
1.0
290
     0
  0
SCALE
  5
55
102
{ACAD_REACTORS
330
47
102
}
330
47
100
AcDbScale
 70
     0
300
4:1
140
4.0
141
1.0
290
     0
  0
SCALE
  5
56
102
{ACAD_REACTORS
330
47
102
}
330
47
100
AcDbScale
 70
     0
300
8:1
140
8.0
141
1.0
290
     0
  0
SCALE
  5
57
102
{ACAD_REACTORS
330
47
102
}
330
47
100
AcDbScale
 70
     0
300
10:1
140
10.0
141
1.0
290
     0
  0
SCALE
  5
58
102
{ACAD_REACTORS
330
47
102
}
330
47
100
AcDbScale
 70
     0
300
100:1
140
100.0
141
1.0
290
     0
  0
ENDSEC
  0
EOF
