  0
SECTION
  2
HEADER
  9
$ACADVER
  1
AC1015
  9
$ACADMAINTVER
 70
     6
  9
$DWGCODEPAGE
  3
ANSI_1253
  9
$INSBASE
 10
0.0
 20
0.0
 30
0.0
  9
$EXTMIN
 10
0.0
 20
0.0
 30
0.0
  9
$EXTMAX
 10
594.0
 20
420.0
 30
0.0
  9
$LIMMIN
 10
0.0
 20
0.0
  9
$LIMMAX
 10
594.0
 20
420.0
  9
$ORTHOMODE
 70
     0
  9
$REGENMODE
 70
     1
  9
$FILLMODE
 70
     1
  9
$QTEXTMODE
 70
     0
  9
$MIRRTEXT
 70
     1
  9
$LTSCALE
 40
2.0
  9
$ATTMODE
 70
     1
  9
$TEXTSIZE
 40
6.0
  9
$TRACEWID
 40
1.0
  9
$TEXTSTYLE
  7
Standard
  9
$CLAYER
  8
0
  9
$CELTYPE
  6
ByLayer
  9
$CECOLOR
 62
   256
  9
$CELTSCALE
 40
1.0
  9
$DISPSILH
 70
     0
  9
$DIMSCALE
 40
1.0
  9
$DIMASZ
 40
6.604
  9
$DIMEXO
 40
1.0
  9
$DIMDLI
 40
3.75
  9
$DIMRND
 40
0.0
  9
$DIMDLE
 40
0.0
  9
$DIMEXE
 40
1.0
  9
$DIMTP
 40
0.0
  9
$DIMTM
 40
0.0
  9
$DIMTXT
 40
6.0
  9
$DIMCEN
 40
2.5
  9
$DIMTSZ
 40
0.0
  9
$DIMTOL
 70
     0
  9
$DIMLIM
 70
     0
  9
$DIMTIH
 70
     1
  9
$DIMTOH
 70
     1
  9
$DIMSE1
 70
     0
  9
$DIMSE2
 70
     0
  9
$DIMTAD
 70
     1
  9
$DIMZIN
 70
     1
  9
$DIMBLK
  1

  9
$DIMASO
 70
     1
  9
$DIMSHO
 70
     1
  9
$DIMPOST
  1

  9
$DIMAPOST
  1

  9
$DIMALT
 70
     0
  9
$DIMALTD
 70
     3
  9
$DIMALTF
 40
0.0393700787
  9
$DIMLFAC
 40
1.0
  9
$DIMTOFL
 70
     1
  9
$DIMTVP
 40
0.0
  9
$DIMTIX
 70
     0
  9
$DIMSOXD
 70
     0
  9
$DIMSAH
 70
     0
  9
$DIMBLK1
  1

  9
$DIMBLK2
  1

  9
$DIMSTYLE
  2
ISO-25
  9
$DIMCLRD
 70
     0
  9
$DIMCLRE
 70
     0
  9
$DIMCLRT
 70
     0
  9
$DIMTFAC
 40
1.0
  9
$DIMGAP
 40
3.048
  9
$DIMJUST
 70
     0
  9
$DIMSD1
 70
     0
  9
$DIMSD2
 70
     0
  9
$DIMTOLJ
 70
     0
  9
$DIMTZIN
 70
     1
  9
$DIMALTZ
 70
     0
  9
$DIMALTTZ
 70
     0
  9
$DIMUPT
 70
     0
  9
$DIMDEC
 70
     1
  9
$DIMTDEC
 70
     1
  9
$DIMALTU
 70
     2
  9
$DIMALTTD
 70
     3
  9
$DIMTXSTY
  7
Standard
  9
$DIMAUNIT
 70
     0
  9
$DIMADEC
 70
     1
  9
$DIMALTRND
 40
0.0
  9
$DIMAZIN
 70
     0
  9
$DIMDSEP
 70
    44
  9
$DIMATFIT
 70
     3
  9
$DIMFRAC
 70
     0
  9
$DIMLDRBLK
  1

  9
$DIMLUNIT
 70
     2
  9
$DIMLWD
 70
    -2
  9
$DIMLWE
 70
    -2
  9
$DIMTMOVE
 70
     0
  9
$LUNITS
 70
     2
  9
$LUPREC
 70
     3
  9
$SKETCHINC
 40
1.0
  9
$FILLETRAD
 40
0.0
  9
$AUNITS
 70
     0
  9
$AUPREC
 70
     2
  9
$MENU
  1
.
  9
$ELEVATION
 40
0.0
  9
$PELEVATION
 40
0.0
  9
$THICKNESS
 40
0.0
  9
$LIMCHECK
 70
     0
  9
$CHAMFERA
 40
0.0
  9
$CHAMFERB
 40
0.0
  9
$CHAMFERC
 40
0.0
  9
$CHAMFERD
 40
0.0
  9
$SKPOLY
 70
     0
  9
$TDCREATE
 40
2460088.568994444
  9
$TDUCREATE
 40
2460088.443994444
  9
$TDUPDATE
 40
2460088.568994965
  9
$TDUUPDATE
 40
2460088.443994965
  9
$TDINDWG
 40
0.0000000116
  9
$TDUSRTIMER
 40
0.0000000116
  9
$USRTIMER
 70
     1
  9
$ANGBASE
 50
0.0
  9
$ANGDIR
 70
     0
  9
$PDMODE
 70
     0
  9
$PDSIZE
 40
-1.0
  9
$PLINEWID
 40
0.0
  9
$SPLFRAME
 70
     0
  9
$SPLINETYPE
 70
     6
  9
$SPLINESEGS
 70
     8
  9
$HANDSEED
  5
41B
  9
$SURFTAB1
 70
     6
  9
$SURFTAB2
 70
     6
  9
$SURFTYPE
 70
     6
  9
$SURFU
 70
     6
  9
$SURFV
 70
     6
  9
$UCSBASE
  2

  9
$UCSNAME
  2

  9
$UCSORG
 10
0.0
 20
0.0
 30
0.0
  9
$UCSXDIR
 10
1.0
 20
0.0
 30
0.0
  9
$UCSYDIR
 10
0.0
 20
1.0
 30
0.0
  9
$UCSORTHOREF
  2

  9
$UCSORTHOVIEW
 70
     0
  9
$UCSORGTOP
 10
0.0
 20
0.0
 30
0.0
  9
$UCSORGBOTTOM
 10
0.0
 20
0.0
 30
0.0
  9
$UCSORGLEFT
 10
0.0
 20
0.0
 30
0.0
  9
$UCSORGRIGHT
 10
0.0
 20
0.0
 30
0.0
  9
$UCSORGFRONT
 10
0.0
 20
0.0
 30
0.0
  9
$UCSORGBACK
 10
0.0
 20
0.0
 30
0.0
  9
$PUCSBASE
  2

  9
$PUCSNAME
  2

  9
$PUCSORG
 10
0.0
 20
0.0
 30
0.0
  9
$PUCSXDIR
 10
1.0
 20
0.0
 30
0.0
  9
$PUCSYDIR
 10
0.0
 20
1.0
 30
0.0
  9
$PUCSORTHOREF
  2

  9
$PUCSORTHOVIEW
 70
     0
  9
$PUCSORGTOP
 10
0.0
 20
0.0
 30
0.0
  9
$PUCSORGBOTTOM
 10
0.0
 20
0.0
 30
0.0
  9
$PUCSORGLEFT
 10
0.0
 20
0.0
 30
0.0
  9
$PUCSORGRIGHT
 10
0.0
 20
0.0
 30
0.0
  9
$PUCSORGFRONT
 10
0.0
 20
0.0
 30
0.0
  9
$PUCSORGBACK
 10
0.0
 20
0.0
 30
0.0
  9
$USERI1
 70
     0
  9
$USERI2
 70
     0
  9
$USERI3
 70
     0
  9
$USERI4
 70
     0
  9
$USERI5
 70
     0
  9
$USERR1
 40
0.0
  9
$USERR2
 40
0.0
  9
$USERR3
 40
0.0
  9
$USERR4
 40
0.0
  9
$USERR5
 40
0.0
  9
$WORLDVIEW
 70
     1
  9
$SHADEDGE
 70
     3
  9
$SHADEDIF
 70
    70
  9
$TILEMODE
 70
     1
  9
$MAXACTVP
 70
    64
  9
$PINSBASE
 10
0.0
 20
0.0
 30
0.0
  9
$PLIMCHECK
 70
     0
  9
$PEXTMIN
 10
1.0000000000E+20
 20
1.0000000000E+20
 30
1.0000000000E+20
  9
$PEXTMAX
 10
-1.0000000000E+20
 20
-1.0000000000E+20
 30
-1.0000000000E+20
  9
$PLIMMIN
 10
0.0
 20
0.0
  9
$PLIMMAX
 10
420.0
 20
297.0
  9
$UNITMODE
 70
     0
  9
$VISRETAIN
 70
     1
  9
$PLINEGEN
 70
     0
  9
$PSLTSCALE
 70
     1
  9
$TREEDEPTH
 70
  3020
  9
$CMLSTYLE
  2
Standard
  9
$CMLJUST
 70
     0
  9
$CMLSCALE
 40
20.0
  9
$PROXYGRAPHICS
 70
     1
  9
$MEASUREMENT
 70
     1
  9
$CELWEIGHT
370
    -1
  9
$ENDCAPS
280
     0
  9
$JOINSTYLE
280
     0
  9
$LWDISPLAY
290
     1
  9
$INSUNITS
 70
     4
  9
$HYPERLINKBASE
  1

  9
$STYLESHEET
  1

  9
$XEDIT
290
     1
  9
$CEPSNTYPE
380
     0
  9
$PSTYLEMODE
290
     1
  9
$FINGERPRINTGUID
  2
{19e981e7-3ea9-4d42-a87a-c2deda73ce22}
  9
$VERSIONGUID
  2
{FAEB1C32-E019-11D5-929B-00C0DF256EC4}
  9
$EXTNAMES
290
     1
  9
$PSVPSCALE
 40
0.0
  9
$OLESTARTUP
290
     0
  0
ENDSEC
  0
SECTION
  2
CLASSES
  0
CLASS
  1
ACDBDICTIONARYWDFLT
  2
AcDbDictionaryWithDefault
  3
ObjectDBX Classes
 90
        0
280
     0
281
     0
  0
CLASS
  1
VISUALSTYLE
  2
AcDbVisualStyle
  3
ObjectDBX Classes
 90
     4095
280
     0
281
     0
  0
CLASS
  1
MATERIAL
  2
AcDbMaterial
  3
ObjectDBX Classes
 90
     1153
280
     0
281
     0
  0
CLASS
  1
SCALE
  2
AcDbScale
  3
ObjectDBX Classes
 90
     1153
280
     0
281
     0
  0
CLASS
  1
TABLESTYLE
  2
AcDbTableStyle
  3
ObjectDBX Classes
 90
     4095
280
     0
281
     0
  0
CLASS
  1
MLEADERSTYLE
  2
AcDbMLeaderStyle
  3
ACDB_MLEADERSTYLE_CLASS
 90
     4095
280
     0
281
     0
  0
CLASS
  1
SUN
  2
AcDbSun
  3
SCENEOE
 90
     1153
280
     0
281
     0
  0
CLASS
  1
ACDBPLACEHOLDER
  2
AcDbPlaceHolder
  3
ObjectDBX Classes
 90
        0
280
     0
281
     0
  0
CLASS
  1
LAYOUT
  2
AcDbLayout
  3
ObjectDBX Classes
 90
        0
280
     0
281
     0
  0
ENDSEC
  0
SECTION
  2
TABLES
  0
TABLE
  2
VPORT
  5
8
330
0
100
AcDbSymbolTable
 70
     1
  0
VPORT
  5
29
330
8
100
AcDbSymbolTableRecord
100
AcDbViewportTableRecord
  2
*Active
 70
     0
 10
0.0
 20
0.0
 11
1.0
 21
1.0
 12
297.0
 22
210.0
 13
0.0
 23
0.0
 14
10.0
 24
10.0
 15
10.0
 25
10.0
 16
0.0
 26
0.0
 36
1.0
 17
0.0
 27
0.0
 37
0.0
 40
420.0
 41
1.4142857143
 42
50.0
 43
0.0
 44
0.0
 50
0.0
 51
0.0
 71
     0
 72
  2000
 73
     1
 74
     3
 75
     0
 76
     0
 77
     0
 78
     0
281
     0
 65
     1
110
0.0
120
0.0
130
0.0
111
1.0
121
0.0
131
0.0
112
0.0
122
1.0
132
0.0
 79
     0
146
0.0
  0
ENDTAB
  0
TABLE
  2
LTYPE
  5
5
330
0
100
AcDbSymbolTable
 70
     6
  0
LTYPE
  5
14
330
5
100
AcDbSymbolTableRecord
100
AcDbLinetypeTableRecord
  2
ByBlock
 70
     0
  3

 72
    65
 73
     0
 40
0.0
  0
LTYPE
  5
15
330
5
100
AcDbSymbolTableRecord
100
AcDbLinetypeTableRecord
  2
ByLayer
 70
     0
  3

 72
    65
 73
     0
 40
0.0
  0
LTYPE
  5
16
330
5
100
AcDbSymbolTableRecord
100
AcDbLinetypeTableRecord
  2
Continuous
 70
     0
  3
Solid line
 72
    65
 73
     0
 40
0.0
  0
LTYPE
  5
5E
330
5
100
AcDbSymbolTableRecord
100
AcDbLinetypeTableRecord
  2
HIDDEN
 70
     0
  3
Hidden __ __ __ __ __ __ __ __ __ __ __ __ __ __
 72
    65
 73
     2
 40
1.905
 49
1.27
 74
     0
 49
-0.635
 74
     0
  0
LTYPE
  5
5F
330
5
100
AcDbSymbolTableRecord
100
AcDbLinetypeTableRecord
  2
PHANTOM
 70
     0
  3
Phantom ______  __  __  ______  __  __  ______
 72
    65
 73
     6
 40
12.7
 49
6.35
 74
     0
 49
-1.27
 74
     0
 49
1.27
 74
     0
 49
-1.27
 74
     0
 49
1.27
 74
     0
 49
-1.27
 74
     0
  0
LTYPE
  5
60
330
5
100
AcDbSymbolTableRecord
100
AcDbLinetypeTableRecord
  2
CENTER
 70
     0
  3
Center ____ _ ____ _ ____ _ ____ _ ____ _ ____
 72
    65
 73
     4
 40
10.16
 49
6.35
 74
     0
 49
-1.27
 74
     0
 49
1.27
 74
     0
 49
-1.27
 74
     0
  0
LTYPE
  5
61
330
5
100
AcDbSymbolTableRecord
100
AcDbLinetypeTableRecord
  2
CENTERX2
 70
     0
  3
Center (2x) ________  __  ________  __  _____
 72
    65
 73
     4
 40
20.32
 49
12.7
 74
     0
 49
-2.54
 74
     0
 49
2.54
 74
     0
 49
-2.54
 74
     0
  0
LTYPE
  5
62
330
5
100
AcDbSymbolTableRecord
100
AcDbLinetypeTableRecord
  2
DOT2
 70
     0
  3
Dot (.5x) ........................................
 72
    65
 73
     2
 40
0.635
 49
0.0
 74
     0
 49
-0.635
 74
     0
  0
ENDTAB
  0
TABLE
  2
LAYER
  5
2
330
0
100
AcDbSymbolTable
 70
     1
  0
LAYER
  5
10
330
2
100
AcDbSymbolTableRecord
100
AcDbLayerTableRecord
  2
0
 70
     0
 62
     7
  6
Continuous
370
    -3
390
F
  0
ENDTAB
  0
TABLE
  2
STYLE
  5
3
330
0
100
AcDbSymbolTable
 70
     1
  0
STYLE
  5
11
330
3
100
AcDbSymbolTableRecord
100
AcDbTextStyleTableRecord
  2
Standard
 70
     0
 40
0.0
 41
1.0
 50
0.0
 71
     0
 42
6.0
  3
txt
  4

  0
ENDTAB
  0
TABLE
  2
VIEW
  5
6
330
0
100
AcDbSymbolTable
 70
     0
  0
ENDTAB
  0
TABLE
  2
UCS
  5
7
330
0
100
AcDbSymbolTable
 70
     0
  0
ENDTAB
  0
TABLE
  2
APPID
  5
9
330
0
100
AcDbSymbolTable
 70
     1
  0
APPID
  5
12
330
9
100
AcDbSymbolTableRecord
100
AcDbRegAppTableRecord
  2
ACAD
 70
     0
  0
ENDTAB
  0
TABLE
  2
DIMSTYLE
  5
A
330
0
100
AcDbSymbolTable
 70
     1
100
AcDbDimStyleTable
  0
DIMSTYLE
105
27
330
A
100
AcDbSymbolTableRecord
100
AcDbDimStyleTableRecord
  2
ISO-25
 70
     0
 41
2.5
 42
0.625
 43
3.75
 44
1.25
 73
     0
 74
     0
 77
     1
 78
     8
140
2.5
141
2.5
143
0.0393700787
147
0.625
171
     3
172
     1
178
     0
271
     2
272
     2
274
     3
278
    44
283
     0
284
     8
340
11
  0
ENDTAB
  0
TABLE
  2
BLOCK_RECORD
  5
1
330
0
100
AcDbSymbolTable
 70
     6
  0
BLOCK_RECORD
  5
1F
330
1
100
AcDbSymbolTableRecord
100
AcDbBlockTableRecord
  2
*Model_Space
340
22
  0
BLOCK_RECORD
  5
1B
330
1
100
AcDbSymbolTableRecord
100
AcDbBlockTableRecord
  2
*Paper_Space
340
1E
  0
BLOCK_RECORD
  5
23
330
1
100
AcDbSymbolTableRecord
100
AcDbBlockTableRecord
  2
*Paper_Space0
340
26
  0
BLOCK_RECORD
  5
63
330
1
100
AcDbSymbolTableRecord
100
AcDbBlockTableRecord
  2
Block1
340
0
  0
BLOCK_RECORD
  5
2F8
330
1
100
AcDbSymbolTableRecord
100
AcDbBlockTableRecord
  2
SW_CENTERMARKSYMBOL_0
340
0
102
{BLKREFS
331
303
102
}
  0
BLOCK_RECORD
  5
304
330
1
100
AcDbSymbolTableRecord
100
AcDbBlockTableRecord
  2
SW_CENTERMARKSYMBOL_1
340
0
102
{BLKREFS
331
30F
102
}
  0
BLOCK_RECORD
  5
310
330
1
100
AcDbSymbolTableRecord
100
AcDbBlockTableRecord
  2
SW_CENTERMARKSYMBOL_2
340
0
102
{BLKREFS
331
31B
102
}
  0
BLOCK_RECORD
  5
31C
330
1
100
AcDbSymbolTableRecord
100
AcDbBlockTableRecord
  2
SW_CENTERMARKSYMBOL_3
340
0
102
{BLKREFS
331
327
102
}
  0
ENDTAB
  0
ENDSEC
  0
SECTION
  2
BLOCKS
  0
BLOCK
  5
20
330
1F
100
AcDbEntity
  8
0
100
AcDbBlockBegin
  2
*Model_Space
 70
     0
 10
0.0
 20
0.0
 30
0.0
  3
*Model_Space
  1

  0
ENDBLK
  5
21
330
1F
100
AcDbEntity
  8
0
100
AcDbBlockEnd
  0
BLOCK
  5
1C
330
1B
100
AcDbEntity
 67
     1
  8
0
100
AcDbBlockBegin
  2
*Paper_Space
 70
     0
 10
0.0
 20
0.0
 30
0.0
  3
*Paper_Space
  1

  0
ENDBLK
  5
1D
330
1B
100
AcDbEntity
 67
     1
  8
0
100
AcDbBlockEnd
  0
BLOCK
  5
24
330
23
100
AcDbEntity
  8
0
100
AcDbBlockBegin
  2
*Paper_Space0
 70
     0
 10
0.0
 20
0.0
 30
0.0
  3
*Paper_Space0
  1

  0
ENDBLK
  5
25
330
23
100
AcDbEntity
  8
0
100
AcDbBlockEnd
  0
BLOCK
  5
64
330
63
100
AcDbEntity
  8
0
100
AcDbBlockBegin
  2
Block1
 70
     0
 10
0.0
 20
0.0
 30
0.0
  3
Block1
  1

  0
CIRCLE
  5
66
330
63
100
AcDbEntity
  8
0
  6
Continuous
 62
     7
370
    18
100
AcDbCircle
 10
12.4961400521
 20
0.0
 30
0.0
 40
3.976565042212953
  0
CIRCLE
  5
67
330
63
100
AcDbEntity
  8
0
  6
Continuous
 62
     7
370
    18
100
AcDbCircle
 10
12.4961400521
 20
0.0
 30
0.0
 40
1.896552315501957
  0
LINE
  5
68
330
63
100
AcDbEntity
  8
0
  6
Continuous
 62
     7
370
    18
100
AcDbLine
 10
-6.4757930526
 20
3.692737301
 30
0.0
 11
-6.4757930526
 21
-3.9765650422
 31
0.0
  0
LINE
  5
69
330
63
100
AcDbEntity
  8
0
  6
Continuous
 62
     7
370
    18
100
AcDbLine
 10
-6.4757930526
 20
-3.9765650422
 30
0.0
 11
6.5839562473
 21
-1.8965523155
 31
0.0
  0
LINE
  5
6A
330
63
100
AcDbEntity
  8
0
  6
Continuous
 62
     7
370
    18
100
AcDbLine
 10
6.5839562473
 20
-1.8965523155
 30
0.0
 11
6.5839562473
 21
1.8663674881
 31
0.0
  0
LINE
  5
6B
330
63
100
AcDbEntity
  8
0
  6
Continuous
 62
     7
370
    18
100
AcDbLine
 10
6.5839562473
 20
1.8663674881
 30
0.0
 11
-6.4757930526
 21
3.692737301
 31
0.0
  0
ENDBLK
  5
65
330
63
100
AcDbEntity
  8
0
100
AcDbBlockEnd
  0
BLOCK
  5
2F9
330
2F8
100
AcDbEntity
  8
0
100
AcDbBlockBegin
  2
SW_CENTERMARKSYMBOL_0
 70
     0
 10
0.0
 20
0.0
 30
0.0
  3
SW_CENTERMARKSYMBOL_0
  1

  0
LINE
  5
2FB
330
2F8
100
AcDbEntity
  8
0
  6
Continuous
 62
     0
370
    18
100
AcDbLine
 10
0.0
 20
0.0
 30
0.0
 11
0.0
 21
2.5
 31
0.0
  0
LINE
  5
2FC
330
2F8
100
AcDbEntity
  8
0
  6
Continuous
 62
     0
370
    18
100
AcDbLine
 10
0.0
 20
0.0
 30
0.0
 11
-2.5
 21
0.0
 31
0.0
  0
LINE
  5
2FD
330
2F8
100
AcDbEntity
  8
0
  6
Continuous
 62
     0
370
    18
100
AcDbLine
 10
0.0
 20
0.0
 30
0.0
 11
0.0
 21
-2.5
 31
0.0
  0
LINE
  5
2FE
330
2F8
100
AcDbEntity
  8
0
  6
Continuous
 62
     0
370
    18
100
AcDbLine
 10
0.0
 20
0.0
 30
0.0
 11
2.5
 21
0.0
 31
0.0
  0
LINE
  5
2FF
330
2F8
100
AcDbEntity
  8
0
  6
Continuous
 62
     0
370
    18
100
AcDbLine
 10
0.0
 20
2.5
 30
0.0
 11
0.0
 21
2.99
 31
0.0
  0
LINE
  5
300
330
2F8
100
AcDbEntity
  8
0
  6
Continuous
 62
     0
370
    18
100
AcDbLine
 10
-2.5
 20
0.0
 30
0.0
 11
-2.99
 21
0.0
 31
0.0
  0
LINE
  5
301
330
2F8
100
AcDbEntity
  8
0
  6
Continuous
 62
     0
370
    18
100
AcDbLine
 10
0.0
 20
-2.5
 30
0.0
 11
0.0
 21
-2.99
 31
0.0
  0
LINE
  5
302
330
2F8
100
AcDbEntity
  8
0
  6
Continuous
 62
     0
370
    18
100
AcDbLine
 10
2.5
 20
0.0
 30
0.0
 11
2.99
 21
0.0
 31
0.0
  0
ENDBLK
  5
2FA
330
2F8
100
AcDbEntity
  8
0
100
AcDbBlockEnd
  0
BLOCK
  5
305
330
304
100
AcDbEntity
  8
0
100
AcDbBlockBegin
  2
SW_CENTERMARKSYMBOL_1
 70
     0
 10
0.0
 20
0.0
 30
0.0
  3
SW_CENTERMARKSYMBOL_1
  1

  0
LINE
  5
307
330
304
100
AcDbEntity
  8
0
  6
Continuous
 62
     0
370
    18
100
AcDbLine
 10
0.0
 20
0.0
 30
0.0
 11
0.0
 21
2.5
 31
0.0
  0
LINE
  5
308
330
304
100
AcDbEntity
  8
0
  6
Continuous
 62
     0
370
    18
100
AcDbLine
 10
0.0
 20
0.0
 30
0.0
 11
-2.5
 21
0.0
 31
0.0
  0
LINE
  5
309
330
304
100
AcDbEntity
  8
0
  6
Continuous
 62
     0
370
    18
100
AcDbLine
 10
0.0
 20
0.0
 30
0.0
 11
0.0
 21
-2.5
 31
0.0
  0
LINE
  5
30A
330
304
100
AcDbEntity
  8
0
  6
Continuous
 62
     0
370
    18
100
AcDbLine
 10
0.0
 20
0.0
 30
0.0
 11
2.5
 21
0.0
 31
0.0
  0
LINE
  5
30B
330
304
100
AcDbEntity
  8
0
  6
Continuous
 62
     0
370
    18
100
AcDbLine
 10
0.0
 20
2.5
 30
0.0
 11
0.0
 21
2.99
 31
0.0
  0
LINE
  5
30C
330
304
100
AcDbEntity
  8
0
  6
Continuous
 62
     0
370
    18
100
AcDbLine
 10
-2.5
 20
0.0
 30
0.0
 11
-2.99
 21
0.0
 31
0.0
  0
LINE
  5
30D
330
304
100
AcDbEntity
  8
0
  6
Continuous
 62
     0
370
    18
100
AcDbLine
 10
0.0
 20
-2.5
 30
0.0
 11
0.0
 21
-2.99
 31
0.0
  0
LINE
  5
30E
330
304
100
AcDbEntity
  8
0
  6
Continuous
 62
     0
370
    18
100
AcDbLine
 10
2.5
 20
0.0
 30
0.0
 11
2.99
 21
0.0
 31
0.0
  0
ENDBLK
  5
306
330
304
100
AcDbEntity
  8
0
100
AcDbBlockEnd
  0
BLOCK
  5
311
330
310
100
AcDbEntity
  8
0
100
AcDbBlockBegin
  2
SW_CENTERMARKSYMBOL_2
 70
     0
 10
0.0
 20
0.0
 30
0.0
  3
SW_CENTERMARKSYMBOL_2
  1

  0
LINE
  5
313
330
310
100
AcDbEntity
  8
0
  6
Continuous
 62
     0
370
    18
100
AcDbLine
 10
0.0
 20
0.0
 30
0.0
 11
0.0
 21
2.5
 31
0.0
  0
LINE
  5
314
330
310
100
AcDbEntity
  8
0
  6
Continuous
 62
     0
370
    18
100
AcDbLine
 10
0.0
 20
0.0
 30
0.0
 11
-2.5
 21
0.0
 31
0.0
  0
LINE
  5
315
330
310
100
AcDbEntity
  8
0
  6
Continuous
 62
     0
370
    18
100
AcDbLine
 10
0.0
 20
0.0
 30
0.0
 11
0.0
 21
-2.5
 31
0.0
  0
LINE
  5
316
330
310
100
AcDbEntity
  8
0
  6
Continuous
 62
     0
370
    18
100
AcDbLine
 10
0.0
 20
0.0
 30
0.0
 11
2.5
 21
0.0
 31
0.0
  0
LINE
  5
317
330
310
100
AcDbEntity
  8
0
  6
Continuous
 62
     0
370
    18
100
AcDbLine
 10
0.0
 20
2.5
 30
0.0
 11
0.0
 21
2.99
 31
0.0
  0
LINE
  5
318
330
310
100
AcDbEntity
  8
0
  6
Continuous
 62
     0
370
    18
100
AcDbLine
 10
-2.5
 20
0.0
 30
0.0
 11
-2.99
 21
0.0
 31
0.0
  0
LINE
  5
319
330
310
100
AcDbEntity
  8
0
  6
Continuous
 62
     0
370
    18
100
AcDbLine
 10
0.0
 20
-2.5
 30
0.0
 11
0.0
 21
-2.99
 31
0.0
  0
LINE
  5
31A
330
310
100
AcDbEntity
  8
0
  6
Continuous
 62
     0
370
    18
100
AcDbLine
 10
2.5
 20
0.0
 30
0.0
 11
2.99
 21
0.0
 31
0.0
  0
ENDBLK
  5
312
330
310
100
AcDbEntity
  8
0
100
AcDbBlockEnd
  0
BLOCK
  5
31D
330
31C
100
AcDbEntity
  8
0
100
AcDbBlockBegin
  2
SW_CENTERMARKSYMBOL_3
 70
     0
 10
0.0
 20
0.0
 30
0.0
  3
SW_CENTERMARKSYMBOL_3
  1

  0
LINE
  5
31F
330
31C
100
AcDbEntity
  8
0
  6
Continuous
 62
     0
370
    18
100
AcDbLine
 10
0.0
 20
0.0
 30
0.0
 11
0.0
 21
2.5
 31
0.0
  0
LINE
  5
320
330
31C
100
AcDbEntity
  8
0
  6
Continuous
 62
     0
370
    18
100
AcDbLine
 10
0.0
 20
0.0
 30
0.0
 11
-2.5
 21
0.0
 31
0.0
  0
LINE
  5
321
330
31C
100
AcDbEntity
  8
0
  6
Continuous
 62
     0
370
    18
100
AcDbLine
 10
0.0
 20
0.0
 30
0.0
 11
0.0
 21
-2.5
 31
0.0
  0
LINE
  5
322
330
31C
100
AcDbEntity
  8
0
  6
Continuous
 62
     0
370
    18
100
AcDbLine
 10
0.0
 20
0.0
 30
0.0
 11
2.5
 21
0.0
 31
0.0
  0
LINE
  5
323
330
31C
100
AcDbEntity
  8
0
  6
Continuous
 62
     0
370
    18
100
AcDbLine
 10
0.0
 20
2.5
 30
0.0
 11
0.0
 21
2.99
 31
0.0
  0
LINE
  5
324
330
31C
100
AcDbEntity
  8
0
  6
Continuous
 62
     0
370
    18
100
AcDbLine
 10
-2.5
 20
0.0
 30
0.0
 11
-2.99
 21
0.0
 31
0.0
  0
LINE
  5
325
330
31C
100
AcDbEntity
  8
0
  6
Continuous
 62
     0
370
    18
100
AcDbLine
 10
0.0
 20
-2.5
 30
0.0
 11
0.0
 21
-2.99
 31
0.0
  0
LINE
  5
326
330
31C
100
AcDbEntity
  8
0
  6
Continuous
 62
     0
370
    18
100
AcDbLine
 10
2.5
 20
0.0
 30
0.0
 11
2.99
 21
0.0
 31
0.0
  0
ENDBLK
  5
31E
330
31C
100
AcDbEntity
  8
0
100
AcDbBlockEnd
  0
ENDSEC
  0
SECTION
  2
ENTITIES
  0
LINE
  5
6C
330
1F
100
AcDbEntity
  8
0
  6
Continuous
 62
     7
370
    25
100
AcDbLine
 10
207.6424750598
 20
173.2793052798
 30
0.0
 11
208.4427305477
 21
173.440247755
 31
0.0
  0
LINE
  5
6D
330
1F
100
AcDbEntity
  8
0
  6
Continuous
 62
     7
370
    25
100
AcDbLine
 10
208.8923133137
 20
174.5302875592
 30
0.0
 11
207.6424750598
 21
174.2789277558
 31
0.0
  0
LINE
  5
6E
330
1F
100
AcDbEntity
  8
0
  6
Continuous
 62
     7
370
    25
100
AcDbLine
 10
208.4427305477
 20
173.9812854986
 30
0.0
 11
208.4427305477
 21
160.172930741
 31
0.0
  0
LINE
  5
6F
330
1F
100
AcDbEntity
  8
0
  6
Continuous
 62
     7
370
    25
100
AcDbLine
 10
209.4227305477
 20
160.0902191157
 30
0.0
 11
209.4227305477
 21
174.0959240761
 31
0.0
  0
LINE
  5
70
330
1F
100
AcDbEntity
  8
0
  6
Continuous
 62
     7
370
    25
100
AcDbLine
 10
58.8572694523
 20
160.2002894202
 30
0.0
 11
58.8572694523
 21
174.0086441778
 31
0.0
  0
LINE
  5
71
330
1F
100
AcDbEntity
  8
0
  6
Continuous
 62
     7
370
    25
100
AcDbLine
 10
57.8772694523
 20
174.0913558032
 30
0.0
 11
57.8772694523
 21
160.0856508427
 31
0.0
  0
LINE
  5
72
330
1F
100
AcDbEntity
  8
0
  6
Continuous
 62
     7
370
    25
100
AcDbLine
 10
59.6575249403
 20
160.902269639
 30
0.0
 11
58.8572694523
 21
160.7413271639
 31
0.0
  0
LINE
  5
73
330
1F
100
AcDbEntity
  8
0
  6
Continuous
 62
     7
370
    25
100
AcDbLine
 10
58.4076866863
 20
159.6512873597
 30
0.0
 11
59.6575249403
 21
159.9026471631
 31
0.0
  0
LINE
  5
74
330
1F
100
AcDbEntity
  8
0
  6
Continuous
 62
     7
370
    25
100
AcDbLine
 10
208.4427305477
 20
160.6215749284
 30
0.0
 11
207.6424750598
 21
160.6215749284
 31
0.0
  0
LINE
  5
75
330
1F
100
AcDbEntity
  8
0
  6
Continuous
 62
     7
370
    25
100
AcDbLine
 10
207.6424750598
 20
159.6415749284
 30
0.0
 11
208.9740863604
 21
159.6415749284
 31
0.0
  0
LINE
  5
76
330
1F
100
AcDbEntity
  8
0
  6
Continuous
 62
     7
370
    25
100
AcDbLine
 10
58.8572694523
 20
173.5599999905
 30
0.0
 11
59.6575249403
 21
173.5599999905
 31
0.0
  0
LINE
  5
77
330
1F
100
AcDbEntity
  8
0
  6
Continuous
 62
     7
370
    25
100
AcDbLine
 10
59.6575249403
 20
174.5399999905
 30
0.0
 11
58.3259136396
 21
174.5399999905
 31
0.0
  0
ELLIPSE
  5
78
330
1F
100
AcDbEntity
  8
0
  6
Continuous
 62
     7
370
    25
100
AcDbEllipse
 10
208.9327305477
 20
174.0386047874
 30
0.0
 11
0.3318851874585108
 21
0.4052772160657981
 31
0.0
210
0.0
220
0.0
230
1.0
 40
0.8894871251
 41
0.6295391162546871
 42
2.314905504847832
  0
ELLIPSE
  5
79
330
1F
100
AcDbEntity
  8
0
  6
Continuous
 62
     7
370
    25
100
AcDbEllipse
 10
208.9327305477
 20
174.0386047874
 30
0.0
 11
0.3318851874585108
 21
0.4052772160657981
 31
0.0
210
0.0
220
0.0
230
1.0
 40
0.8894871251
 41
5.45649815843764
 42
6.912724423434272
  0
ELLIPSE
  5
7A
330
1F
100
AcDbEntity
  8
0
  6
Continuous
 62
     7
370
    25
100
AcDbEllipse
 10
208.9327305477
 20
160.1315749284
 30
0.0
 11
0.3608076691358235
 21
-0.3608076691357951
 31
0.0
210
0.0
220
0.0
230
0.9999999999999998
 40
0.9188789544
 41
3.884740746563159
 42
5.540037214206217
  0
ELLIPSE
  5
7B
330
1F
100
AcDbEntity
  8
0
  6
Continuous
 62
     7
370
    25
100
AcDbEllipse
 10
208.9327305477
 20
160.1315749284
 30
0.0
 11
0.3608076691358235
 21
-0.3608076691357951
 31
0.0
210
0.0
220
0.0
230
0.9999999999999998
 40
0.9188789544
 41
5.540037214206217
 42
7.026333400152889
  0
ELLIPSE
  5
7C
330
1F
100
AcDbEntity
  8
0
  6
Continuous
 62
     7
370
    25
100
AcDbEllipse
 10
58.3672694523
 20
160.1429701315
 30
0.0
 11
0.3318851874584965
 21
0.405277216065798
 31
0.0
210
0.0
220
0.0
230
0.9999999999999999
 40
0.8894871251
 41
3.771131769844465
 42
5.456498158437685
  0
ELLIPSE
  5
7D
330
1F
100
AcDbEntity
  8
0
  6
Continuous
 62
     7
370
    25
100
AcDbEllipse
 10
58.3672694523
 20
160.1429701315
 30
0.0
 11
0.3318851874584965
 21
0.405277216065798
 31
0.0
210
0.0
220
0.0
230
0.9999999999999999
 40
0.8894871251
 41
2.314905504847821
 42
3.771131769844494
  0
ELLIPSE
  5
7E
330
1F
100
AcDbEntity
  8
0
  6
Continuous
 62
     7
370
    25
100
AcDbEllipse
 10
58.3672694523
 20
174.0499999905
 30
0.0
 11
0.3608076691357951
 21
-0.3608076691357951
 31
0.0
210
0.0
220
0.0
230
0.9999999999999998
 40
0.9188789544
 41
0.7431480929733378
 42
2.398444560616459
  0
ELLIPSE
  5
7F
330
1F
100
AcDbEntity
  8
0
  6
Continuous
 62
     7
370
    25
100
AcDbEllipse
 10
58.3672694523
 20
174.0499999905
 30
0.0
 11
0.3608076691357951
 21
-0.3608076691357951
 31
0.0
210
0.0
220
0.0
230
0.9999999999999998
 40
0.9188789544
 41
2.39844456061643
 42
3.884740746563145
  0
LINE
  5
80
330
1F
100
AcDbEntity
  8
0
  6
Continuous
 62
     7
370
    25
100
AcDbLine
 10
206.7427857385
 20
145.208165587
 30
0.0
 11
60.5572142615
 21
145.208165587
 31
0.0
  0
LINE
  5
81
330
1F
100
AcDbEntity
  8
0
  6
Continuous
 62
     7
370
    25
100
AcDbLine
 10
206.7427857385
 20
145.208165587
 30
0.0
 11
206.7427857385
 21
144.710068238
 31
0.0
  0
LINE
  5
82
330
1F
100
AcDbEntity
  8
0
  6
Continuous
 62
     7
370
    25
100
AcDbLine
 10
60.5572142615
 20
144.710068238
 30
0.0
 11
206.7427857385
 21
144.710068238
 31
0.0
  0
LINE
  5
83
330
1F
100
AcDbEntity
  8
0
  6
Continuous
 62
     7
370
    25
100
AcDbLine
 10
60.5572142615
 20
145.208165587
 30
0.0
 11
60.5572142615
 21
144.710068238
 31
0.0
  0
LINE
  5
84
330
1F
100
AcDbEntity
  8
0
  6
Continuous
 62
     7
370
    25
100
AcDbLine
 10
59.810068238
 20
190.5427857385
 30
0.0
 11
59.810068238
 21
145.4572142615
 31
0.0
  0
LINE
  5
85
330
1F
100
AcDbEntity
  8
0
  6
Continuous
 62
     7
370
    25
100
AcDbLine
 10
59.810068238
 20
190.5427857385
 30
0.0
 11
60.308165587
 21
190.5427857385
 31
0.0
  0
LINE
  5
86
330
1F
100
AcDbEntity
  8
0
  6
Continuous
 62
     7
370
    25
100
AcDbLine
 10
60.308165587
 20
145.4572142615
 30
0.0
 11
60.308165587
 21
190.5427857385
 31
0.0
  0
LINE
  5
87
330
1F
100
AcDbEntity
  8
0
  6
Continuous
 62
     7
370
    25
100
AcDbLine
 10
60.308165587
 20
145.4572142615
 30
0.0
 11
59.810068238
 21
145.4572142615
 31
0.0
  0
ELLIPSE
  5
88
330
1F
100
AcDbEntity
  8
0
  6
Continuous
 62
     7
370
    25
100
AcDbEllipse
 10
66.6503047722
 20
183.4996952279
 30
0.0
 11
-0.3539842722813943
 21
0.353984272317831
 31
0.0
210
0.0
220
0.0
230
1.0
 40
0.998782766
 41
5.498396131419067
 42
7.067974483043081
  0
LINE
  5
89
330
1F
100
AcDbEntity
  8
0
  6
Continuous
 62
     7
370
    25
100
AcDbLine
 10
66.15
 20
152.4996954135
 30
0.0
 11
66.15
 21
183.5003045865
 31
0.0
  0
ELLIPSE
  5
8A
330
1F
100
AcDbEntity
  8
0
  6
Continuous
 62
     7
370
    25
100
AcDbEllipse
 10
66.6503047722
 20
152.5003047721
 30
0.0
 11
-0.3539842722973532
 21
-0.3539842723018296
 31
0.0
210
0.0
220
0.0
230
1.0
 40
0.998782766
 41
5.498396131361527
 42
7.067974482985212
  0
LINE
  5
8B
330
1F
100
AcDbEntity
  8
0
  6
Continuous
 62
     7
370
    25
100
AcDbLine
 10
200.6503045865
 20
152.0
 30
0.0
 11
66.6496954135
 21
152.0
 31
0.0
  0
ELLIPSE
  5
8C
330
1F
100
AcDbEntity
  8
0
  6
Continuous
 62
     7
370
    25
100
AcDbEllipse
 10
200.6496952279
 20
152.5003047721
 30
0.0
 11
0.3539842722891535
 21
-0.3539842723101003
 31
0.0
210
0.0
220
0.0
230
0.9999999999999998
 40
0.998782766
 41
5.498396131397186
 42
7.067974483021004
  0
LINE
  5
8D
330
1F
100
AcDbEntity
  8
0
  6
Continuous
 62
     7
370
    25
100
AcDbLine
 10
201.15
 20
183.5003045865
 30
0.0
 11
201.15
 21
152.4996954135
 31
0.0
  0
ELLIPSE
  5
8E
330
1F
100
AcDbEntity
  8
0
  6
Continuous
 62
     7
370
    25
100
AcDbEllipse
 10
200.6496952279
 20
183.4996952279
 30
0.0
 11
0.3539842723070876
 21
0.3539842722921378
 31
0.0
210
0.0
220
0.0
230
0.9999999999999999
 40
0.998782766
 41
5.49839613138885
 42
7.067974483012684
  0
LINE
  5
8F
330
1F
100
AcDbEntity
  8
0
  6
Continuous
 62
     7
370
    25
100
AcDbLine
 10
66.6496954135
 20
184.0
 30
0.0
 11
200.6503045865
 21
184.0
 31
0.0
  0
ELLIPSE
  5
90
330
1F
100
AcDbEntity
  8
0
  6
Continuous
 62
     7
370
    25
100
AcDbEllipse
 10
206.7408794536
 20
145.4591205464
 30
0.0
 11
0.1781246519724675
 21
-0.1781246519726665
 31
0.0
210
0.0
220
0.0
230
1.0
 40
0.9924325091
 41
5.501585242056145
 42
7.064785372304385
  0
ELLIPSE
  5
91
330
1F
100
AcDbEntity
  8
0
  6
Continuous
 62
     7
370
    25
100
AcDbEllipse
 10
60.5591205464
 20
145.4591205464
 30
0.0
 11
-0.1781246519727802
 21
-0.1781246519723254
 31
0.0
210
0.0
220
0.0
230
0.9999999999999998
 40
0.9924325091
 41
5.501585242056689
 42
7.064785372305021
  0
ELLIPSE
  5
92
330
1F
100
AcDbEntity
  8
0
  6
Continuous
 62
     7
370
    25
100
AcDbEllipse
 10
60.5591205464
 20
190.5408794536
 30
0.0
 11
-0.1781246519730644
 21
0.1781246519720412
 31
0.0
210
0.0
220
0.0
230
1.0
 40
0.9924325091
 41
5.501585242052912
 42
7.064785372301069
  0
LINE
  5
93
330
1F
100
AcDbEntity
  8
0
  6
Continuous
 62
     7
370
    25
100
AcDbLine
 10
60.5572142615
 20
190.791834413
 30
0.0
 11
206.7427857385
 21
190.791834413
 31
0.0
  0
ELLIPSE
  5
94
330
1F
100
AcDbEntity
  8
0
  6
Continuous
 62
     7
370
    25
100
AcDbEllipse
 10
206.7408794536
 20
190.5408794536
 30
0.0
 11
0.178124651972638
 21
0.1781246519724959
 31
0.0
210
0.0
220
0.0
230
1.0
 40
0.9924325091
 41
5.501585242055835
 42
7.06478537230438
  0
LINE
  5
95
330
1F
100
AcDbEntity
  8
0
  6
Continuous
 62
     7
370
    25
100
AcDbLine
 10
206.991834413
 20
190.5427857385
 30
0.0
 11
206.991834413
 21
145.4572142615
 31
0.0
  0
LINE
  5
96
330
1F
100
AcDbEntity
  8
0
  6
Continuous
 62
     7
370
    25
100
AcDbLine
 10
206.7427857385
 20
191.289931762
 30
0.0
 11
60.5572142615
 21
191.289931762
 31
0.0
  0
LINE
  5
97
330
1F
100
AcDbEntity
  8
0
  6
Continuous
 62
     7
370
    25
100
AcDbLine
 10
206.7427857385
 20
191.289931762
 30
0.0
 11
206.7427857385
 21
190.791834413
 31
0.0
  0
LINE
  5
98
330
1F
100
AcDbEntity
  8
0
  6
Continuous
 62
     7
370
    25
100
AcDbLine
 10
60.5572142615
 20
191.289931762
 30
0.0
 11
60.5572142615
 21
190.791834413
 31
0.0
  0
ARC
  5
99
330
1F
100
AcDbEntity
  8
0
  6
Continuous
 62
     7
370
    25
100
AcDbCircle
 10
60.5614373431
 20
190.5385626569
 30
0.0
 40
0.7513809729407909
100
AcDbArc
 50
90.3220284119
 51
179.677971588
  0
ARC
  5
9A
330
1F
100
AcDbEntity
  8
0
  6
Continuous
 62
     7
370
    25
100
AcDbCircle
 10
206.738562657
 20
190.5385626569
 30
0.0
 40
0.751380972940734
100
AcDbArc
 50
0.322028412
 51
89.677971588
  0
LINE
  5
9B
330
1F
100
AcDbEntity
  8
0
  6
Continuous
 62
     7
370
    25
100
AcDbLine
 10
207.489931762
 20
190.5427857385
 30
0.0
 11
206.991834413
 21
190.5427857385
 31
0.0
  0
LINE
  5
9C
330
1F
100
AcDbEntity
  8
0
  6
Continuous
 62
     7
370
    25
100
AcDbLine
 10
206.991834413
 20
145.4572142615
 30
0.0
 11
207.489931762
 21
145.4572142615
 31
0.0
  0
ARC
  5
9D
330
1F
100
AcDbEntity
  8
0
  6
Continuous
 62
     7
370
    25
100
AcDbCircle
 10
206.738562657
 20
145.4614373431
 30
0.0
 40
0.7513809729401388
100
AcDbArc
 50
270.3220284118
 51
359.677971588
  0
ARC
  5
9E
330
1F
100
AcDbEntity
  8
0
  6
Continuous
 62
     7
370
    25
100
AcDbCircle
 10
60.5614373431
 20
145.4614373431
 30
0.0
 40
0.7513809729427605
100
AcDbArc
 50
180.322028412
 51
269.6779715879
  0
LINE
  5
9F
330
1F
100
AcDbEntity
  8
0
  6
Continuous
 62
     7
370
    25
100
AcDbLine
 10
67.3909060342
 20
153.7406014477
 30
0.0
 11
66.15
 21
152.4996954135
 31
0.0
  0
LINE
  5
A0
330
1F
100
AcDbEntity
  8
0
  6
Continuous
 62
     7
370
    25
100
AcDbLine
 10
199.9090939658
 20
182.2593985523
 30
0.0
 11
201.15
 21
183.5003045865
 31
0.0
  0
LINE
  5
A1
330
1F
100
AcDbEntity
  8
0
  6
Continuous
 62
     7
370
    25
100
AcDbLine
 10
207.489931762
 20
145.4572142615
 30
0.0
 11
207.489931762
 21
190.5427857385
 31
0.0
  0
LINE
  5
A2
330
1F
100
AcDbEntity
  8
0
  6
Continuous
 62
     7
370
    25
100
AcDbLine
 10
201.15
 20
152.4996954135
 30
0.0
 11
199.9090939658
 21
153.7406014477
 31
0.0
  0
LINE
  5
A3
330
1F
100
AcDbEntity
  8
0
  6
Continuous
 62
     7
370
    25
100
AcDbLine
 10
199.9090939658
 20
153.7406014477
 30
0.0
 11
199.9090939658
 21
182.2593985523
 31
0.0
  0
LINE
  5
A4
330
1F
100
AcDbEntity
  8
0
  6
Continuous
 62
     7
370
    25
100
AcDbLine
 10
66.15
 20
183.5003045865
 30
0.0
 11
67.3909060342
 21
182.2593985523
 31
0.0
  0
LINE
  5
A5
330
1F
100
AcDbEntity
  8
0
  6
Continuous
 62
     7
370
    25
100
AcDbLine
 10
67.3909060342
 20
182.2593985523
 30
0.0
 11
67.3909060342
 21
153.7406014477
 31
0.0
  0
LINE
  5
A6
330
1F
100
AcDbEntity
  8
0
  6
Continuous
 62
     7
370
    25
100
AcDbLine
 10
59.6575249403
 20
190.6953290362
 30
0.0
 11
59.810068238
 21
190.5427857385
 31
0.0
  0
ELLIPSE
  5
A7
330
1F
100
AcDbEntity
  8
0
  6
Continuous
 62
     7
370
    25
100
AcDbEllipse
 10
60.4103898184
 20
190.6896101816
 30
0.0
 11
-0.5343739559171325
 21
0.5343739559182551
 31
0.0
210
0.0
220
0.0
230
0.9999999999999998
 40
0.9924325091
 41
5.501585242056481
 42
7.064785372304835
  0
LINE
  5
A8
330
1F
100
AcDbEntity
  8
0
  6
Continuous
 62
     7
370
    25
100
AcDbLine
 10
60.5572142615
 20
191.289931762
 30
0.0
 11
60.4046709638
 21
191.4424750598
 31
0.0
  0
LINE
  5
A9
330
1F
100
AcDbEntity
  8
0
  6
Continuous
 62
     7
370
    25
100
AcDbLine
 10
206.8953290362
 20
191.4424750598
 30
0.0
 11
206.7427857385
 21
191.289931762
 31
0.0
  0
ELLIPSE
  5
AA
330
1F
100
AcDbEntity
  8
0
  6
Continuous
 62
     7
370
    25
100
AcDbEllipse
 10
206.8896101816
 20
190.6896101816
 30
0.0
 11
0.5343739559187952
 21
0.5343739559165782
 31
0.0
210
0.0
220
0.0
230
1.0
 40
0.9924325091
 41
5.501585242057486
 42
7.064785372305849
  0
LINE
  5
AB
330
1F
100
AcDbEntity
  8
0
  6
Continuous
 62
     7
370
    25
100
AcDbLine
 10
207.489931762
 20
190.5427857385
 30
0.0
 11
207.6424750598
 21
190.6953290362
 31
0.0
  0
LINE
  5
AC
330
1F
100
AcDbEntity
  8
0
  6
Continuous
 62
     7
370
    25
100
AcDbLine
 10
207.6424750598
 20
145.3046709638
 30
0.0
 11
207.489931762
 21
145.4572142615
 31
0.0
  0
ELLIPSE
  5
AD
330
1F
100
AcDbEntity
  8
0
  6
Continuous
 62
     7
370
    25
100
AcDbEllipse
 10
206.8896101816
 20
145.3103898184
 30
0.0
 11
0.5343739559170899
 21
-0.5343739559182836
 31
3.552713678800501E-15
210
-3.324183036479936E-15
220
3.324183036487418E-15
230
1.0
 40
0.9924325091
 41
5.501585242056529
 42
7.064785372304891
  0
LINE
  5
AE
330
1F
100
AcDbEntity
  8
0
  6
Continuous
 62
     7
370
    25
100
AcDbLine
 10
206.7427857385
 20
144.710068238
 30
0.0
 11
206.8953290362
 21
144.5575249402
 31
0.0
  0
LINE
  5
AF
330
1F
100
AcDbEntity
  8
0
  6
Continuous
 62
     7
370
    25
100
AcDbLine
 10
60.4046709638
 20
144.5575249402
 30
0.0
 11
60.5572142615
 21
144.710068238
 31
0.0
  0
ELLIPSE
  5
B0
330
1F
100
AcDbEntity
  8
0
  6
Continuous
 62
     7
370
    25
100
AcDbEllipse
 10
60.4103898184
 20
145.3103898184
 30
0.0
 11
-0.5343739559184185
 21
-0.5343739559169762
 31
0.0
210
0.0
220
0.0
230
0.9999999999999998
 40
0.9924325091
 41
5.501585242056731
 42
7.064785372305126
  0
LINE
  5
B1
330
1F
100
AcDbEntity
  8
0
  6
Continuous
 62
     7
370
    25
100
AcDbLine
 10
59.810068238
 20
145.4572142615
 30
0.0
 11
59.6575249403
 21
145.3046709638
 31
0.0
  0
LINE
  5
B2
330
1F
100
AcDbEntity
  8
0
  6
Continuous
 62
     7
370
    25
100
AcDbLine
 10
59.6575249403
 20
190.6953290362
 30
0.0
 11
59.6575249403
 21
145.3046709638
 31
0.0
  0
LINE
  5
B3
330
1F
100
AcDbEntity
  8
0
  6
Continuous
 62
     7
370
    25
100
AcDbLine
 10
206.8953290362
 20
191.4424750598
 30
0.0
 11
60.4046709638
 21
191.4424750598
 31
0.0
  0
LINE
  5
B4
330
1F
100
AcDbEntity
  8
0
  6
Continuous
 62
     7
370
    25
100
AcDbLine
 10
207.6424750598
 20
145.3046709638
 30
0.0
 11
207.6424750598
 21
190.6953290362
 31
0.0
  0
LINE
  5
B5
330
1F
100
AcDbEntity
  8
0
  6
Continuous
 62
     7
370
    25
100
AcDbLine
 10
60.4046709638
 20
144.5575249402
 30
0.0
 11
206.8953290362
 21
144.5575249402
 31
0.0
  0
ARC
  5
B6
330
1F
100
AcDbEntity
  8
0
  6
Continuous
 62
     7
370
    25
100
AcDbCircle
 10
57.4113560893
 20
201.345442242
 30
0.0
 40
46.55304164746092
100
AcDbArc
 50
293.5231962761
 51
299.8056252656
  0
LWPOLYLINE
  5
B7
330
1F
100
AcDbEntity
  8
0
  6
Continuous
 62
     7
370
    25
100
AcDbPolyline
 90
       13
 70
   128
 43
0.0
 10
75.9916245581
 20
158.6617722521
 10
75.0467485583
 20
158.1888556673
 10
74.0894548114
 20
157.7067268078
 10
73.0889013187
 20
157.2043554776
 10
72.1129099909
 20
156.7139688625
 10
71.2149798159
 20
156.2622187457
 10
70.7801782941
 20
156.0448449189
 10
70.4132449509
 20
155.8613692855
 10
70.02733507
 20
155.6658747599
 10
69.6221940241
 20
155.4619849387
 10
69.2083383151
 20
155.2549727705
 10
68.884230518
 20
155.0918875448
 10
68.702392139
 20
155.0002917906
  0
ARC
  5
B8
330
1F
100
AcDbEntity
  8
0
  6
Continuous
 62
     7
370
    25
100
AcDbCircle
 10
68.6998182926
 20
155.3002305065
 30
0.0
 40
0.3001381111577849
100
AcDbArc
 50
179.230609069
 51
270.4912693282
  0
LWPOLYLINE
  5
B9
330
1F
100
AcDbEntity
  8
0
  6
Continuous
 62
     7
370
    25
100
AcDbPolyline
 90
       14
 70
   128
 43
0.0
 10
68.400483374
 20
155.3042659968
 10
68.4097613105
 20
155.3174925811
 10
68.4252853201
 20
155.3536264955
 10
68.447504923
 20
155.4112400794
 10
68.5578264225
 20
155.6828161853
 10
68.6833307443
 20
155.9875201196
 10
68.8852641107
 20
156.4805918517
 10
69.1298550919
 20
157.0631171649
 10
69.3606315586
 20
157.6193320923
 10
69.6677655113
 20
158.3694397047
 10
70.035428911
 20
159.2559847137
 10
70.5675094664
 20
160.541789491
 10
71.1698302675
 20
162.0021210488
 10
71.8469891144
 20
163.6369793871
  0
LWPOLYLINE
  5
BA
330
1F
100
AcDbEntity
  8
0
  6
Continuous
 62
     7
370
    25
100
AcDbPolyline
 90
        5
 70
   128
 43
0.0
 10
71.8469891144
 20
163.6369793871
 10
72.2381022201
 20
164.5871814766
 10
72.6704320619
 20
165.6269105502
 10
73.1192676069
 20
166.7097523564
 10
73.601021115
 20
167.8812836612
  0
ARC
  5
BB
330
1F
100
AcDbEntity
  8
0
  6
Continuous
 62
     7
370
    25
100
AcDbCircle
 10
80.65
 20
168.0
 30
0.0
 40
7.05000000000005
100
AcDbArc
 50
180.9648589222
 51
269.1951660713
  0
LWPOLYLINE
  5
BC
330
1F
100
AcDbEntity
  8
0
  6
Continuous
 62
     7
370
    25
100
AcDbPolyline
 90
        4
 70
   128
 43
0.0
 10
195.4530108856
 20
172.3630206129
 10
195.0618233257
 20
171.4112932564
 10
194.6123816395
 20
170.3301410411
 10
193.6989833623
 20
168.1187501011
  0
ARC
  5
BD
330
1F
100
AcDbEntity
  8
0
  6
Continuous
 62
     7
370
    25
100
AcDbCircle
 10
186.65
 20
168.0
 30
0.0
 40
7.04999999999995
100
AcDbArc
 50
0.9651327359
 51
89.1948546513
  0
LWPOLYLINE
  5
BE
330
1F
100
AcDbEntity
  8
0
  6
Continuous
 62
     7
370
    25
100
AcDbPolyline
 90
        5
 70
   128
 43
0.0
 10
186.7490674037
 20
175.0492458641
 10
188.1012729787
 20
175.7267785106
 10
189.3396172708
 20
176.3504398881
 10
190.4047082088
 20
176.8864917265
 10
191.3083754419
 20
177.3382277479
  0
LWPOLYLINE
  5
BF
330
1F
100
AcDbEntity
  8
0
  6
Continuous
 62
     7
370
    25
100
AcDbPolyline
 90
       15
 70
   128
 43
0.0
 10
198.5976080783
 20
180.9999586524
 10
198.5791670526
 20
180.9876540968
 10
198.3818853297
 20
180.8879081595
 10
198.1249837839
 20
180.7620881549
 10
197.7593957091
 20
180.5805686713
 10
197.3848016151
 20
180.3915405078
 10
197.0148478793
 20
180.2039219821
 10
196.6522093177
 20
180.0203429477
 10
196.2993061333
 20
179.8431829242
 10
195.6003294473
 20
179.4935806173
 10
194.8600370282
 20
179.122098236
 10
194.0797855079
 20
178.7300696075
 10
193.4184180926
 20
178.3998042549
 10
192.4991760088
 20
177.9405892594
 10
191.3083795303
 20
177.3389748464
  0
ARC
  5
C0
330
1F
100
AcDbEntity
  8
0
  6
Continuous
 62
     7
370
    25
100
AcDbCircle
 10
198.6005467923
 20
180.7001344681
 30
0.0
 40
0.2997771145346589
100
AcDbArc
 50
359.1664167159
 51
90.5616685482
  0
LWPOLYLINE
  5
C1
330
1F
100
AcDbEntity
  8
0
  6
Continuous
 62
     7
370
    25
100
AcDbPolyline
 90
       15
 70
   128
 43
0.0
 10
198.8995163489
 20
180.6957679985
 10
198.7793839082
 20
180.4085573675
 10
198.6265398271
 20
180.0379683514
 10
198.4391641552
 20
179.58400095
 10
198.3250805082
 20
179.3090318894
 10
198.2034445736
 20
179.015481121
 10
198.0743431519
 20
178.7033486448
 10
197.9378393052
 20
178.3726344609
 10
197.7941026778
 20
178.0233385692
 10
197.4463641361
 20
177.1830893177
 10
197.1158446658
 20
176.3879742911
 10
196.7939815288
 20
175.5990391453
 10
196.387048667
 20
174.6218338459
 10
195.9514400354
 20
173.5683172244
 10
195.4530108856
 20
172.3630206129
  0
LWPOLYLINE
  5
C2
330
1F
100
AcDbEntity
  8
0
  6
Continuous
 62
     7
370
    25
100
AcDbPolyline
 90
        5
 70
   128
 43
0.0
 10
191.3083754419
 20
158.6617722521
 10
190.4109483145
 20
159.1118412267
 10
189.3574995695
 20
159.6413667768
 10
188.1128779527
 20
160.2661909061
 10
186.7490290289
 20
160.9507668388
  0
ARC
  5
C3
330
1F
100
AcDbEntity
  8
0
  6
Continuous
 62
     7
370
    25
100
AcDbCircle
 10
186.65
 20
168.0
 30
0.0
 40
7.049999999999994
100
AcDbArc
 50
270.8048338971
 51
359.0353119954
  0
LWPOLYLINE
  5
C4
330
1F
100
AcDbEntity
  8
0
  6
Continuous
 62
     7
370
    25
100
AcDbPolyline
 90
        5
 70
   128
 43
0.0
 10
195.4538196112
 20
163.6369760582
 10
195.0542441925
 20
164.6088238863
 10
194.6612519265
 20
165.5514797547
 10
194.2250284159
 20
166.6098275031
 10
193.6990339021
 20
167.8813048981
  0
LWPOLYLINE
  5
C5
330
1F
100
AcDbEntity
  8
0
  6
Continuous
 62
     7
370
    25
100
AcDbPolyline
 90
       21
 70
   128
 43
0.0
 10
198.9001317857
 20
155.3042076157
 10
198.8826818888
 20
155.338994111
 10
198.8727416299
 20
155.3623122527
 10
198.8608132845
 20
155.3914192286
 10
198.8467932751
 20
155.4264168749
 10
198.7580689848
 20
155.6434344557
 10
198.6895353994
 20
155.8090136448
 10
198.5442160694
 20
156.1670107514
 10
198.3325506655
 20
156.6792639246
 10
198.123398102
 20
157.1752207013
 10
197.9507505604
 20
157.5908441997
 10
197.7247435896
 20
158.1434752834
 10
197.497975765
 20
158.6923988988
 10
197.2729881094
 20
159.2351167369
 10
197.0518806162
 20
159.7695641048
 10
196.7793621298
 20
160.431127894
 10
196.541599246
 20
161.0046550347
 10
196.3231869317
 20
161.5307609578
 10
196.1571891321
 20
161.9353957271
 10
195.8764298625
 20
162.620107492
 10
195.4538196112
 20
163.6369760582
  0
ARC
  5
C6
330
1F
100
AcDbEntity
  8
0
  6
Continuous
 62
     7
370
    25
100
AcDbCircle
 10
198.6002362675
 20
155.300174817
 30
0.0
 40
0.3000830661197811
100
AcDbArc
 50
269.4985791055
 51
0.7700435785
  0
LWPOLYLINE
  5
C7
330
1F
100
AcDbEntity
  8
0
  6
Continuous
 62
     7
370
    25
100
AcDbPolyline
 90
       10
 70
   128
 43
0.0
 10
198.5976097269
 20
155.0002916078
 10
198.4025846425
 20
155.0985772003
 10
198.0623556134
 20
155.2694864847
 10
197.6335175614
 20
155.4842690861
 10
197.1006078824
 20
155.752921856
 10
196.6060503708
 20
156.0019502867
 10
196.0402912029
 20
156.2846434397
 10
194.5131995383
 20
157.0526703777
 10
192.8746607198
 20
157.8756686495
 10
191.3083754419
 20
158.6617722521
  0
LWPOLYLINE
  5
C8
330
1F
100
AcDbEntity
  8
0
  6
Continuous
 62
     7
370
    25
100
AcDbPolyline
 90
        5
 70
   128
 43
0.0
 10
71.8461803888
 20
172.3630239418
 10
72.2371294843
 20
171.4116831446
 10
72.6370712317
 20
170.4515027759
 10
73.0843897433
 20
169.3688670922
 10
73.6009560167
 20
168.1187500747
  0
LWPOLYLINE
  5
C9
330
1F
100
AcDbEntity
  8
0
  6
Continuous
 62
     7
370
    25
100
AcDbPolyline
 90
       29
 70
   128
 43
0.0
 10
68.3998704394
 20
180.694783641
 10
68.6550821258
 20
180.0785469447
 10
68.9743912658
 20
179.3109040366
 10
69.2107042316
 20
178.7397462699
 10
69.4399753327
 20
178.1853057334
 10
69.7368602947
 20
177.4623112113
 10
69.903268301
 20
177.062139942
 10
70.0394751268
 20
176.736277528
 10
70.1427861882
 20
176.4873732581
 10
70.2855830124
 20
176.1370042143
 10
70.4105261358
 20
175.8319907902
 10
70.5734630472
 20
175.4381660677
 10
70.8568040483
 20
174.7597006285
 10
71.0697007131
 20
174.2465467136
 10
71.1164662074
 20
174.1321128814
 10
71.1727406129
 20
173.9940767462
 10
71.2387373544
 20
173.8322284705
 10
71.3147331953
 20
173.6462959436
 10
71.4009527155
 20
173.4360583605
 10
71.5927990865
 20
172.97015647
 10
71.7326167008
 20
172.6343805332
 10
71.8173204335
 20
172.431763815
 10
71.8387924708
 20
172.3805987205
 10
71.8442525142
 20
172.3676070658
 10
71.8456583936
 20
172.3642640236
 10
71.8460299057
 20
172.3633810841
 10
71.8461327779
 20
172.3631367863
 10
71.8461634912
 20
172.3630639322
 10
71.8461803888
 20
172.3630239418
  0
ARC
  5
CA
330
1F
100
AcDbEntity
  8
0
  6
Continuous
 62
     7
370
    25
100
AcDbCircle
 10
68.6992885935
 20
180.7002793043
 30
0.0
 40
0.2996331471909756
100
AcDbArc
 50
89.4060791655
 51
181.0510418277
  0
LWPOLYLINE
  5
CB
330
1F
100
AcDbEntity
  8
0
  6
Continuous
 62
     7
370
    25
100
AcDbPolyline
 90
       11
 70
   128
 43
0.0
 10
68.7023949107
 20
180.9997080716
 10
68.7736965666
 20
180.9558613961
 10
68.975283435
 20
180.8582805339
 10
69.3044818603
 20
180.7006718551
 10
69.7500450764
 20
180.475870755
 10
70.1723582428
 20
180.2591492146
 10
70.5949939931
 20
180.0486454521
 10
71.0653985103
 20
179.8131443953
 10
72.510834759
 20
179.0864475939
 10
74.1939057517
 20
178.2394162057
 10
75.9916245581
 20
177.3382277479
  0
ARC
  5
CC
330
1F
100
AcDbEntity
  8
0
  6
Continuous
 62
     7
370
    25
100
AcDbCircle
 10
-102.4803993495
 20
-183.7319884056
 30
0.0
 40
402.7710296956903
100
AcDbArc
 50
62.9717405365
 51
63.6974960013
  0
ARC
  5
CD
330
1F
100
AcDbEntity
  8
0
  6
Continuous
 62
     7
370
    25
100
AcDbCircle
 10
80.65
 20
168.0
 30
0.0
 40
7.049999999999999
100
AcDbArc
 50
90.8062106536
 51
179.034866648
  0
ARC
  5
CE
330
1F
100
AcDbEntity
  8
0
  6
Continuous
 62
     7
370
    25
100
AcDbCircle
 10
148.4847107474
 20
155.9203311162
 30
0.0
 40
0.3757097901318534
100
AcDbArc
 50
217.8205431389
 51
273.140992068
  0
LINE
  5
CF
330
1F
100
AcDbEntity
  8
0
  6
Continuous
 62
     7
370
    25
100
AcDbLine
 10
148.1878673279
 20
155.6899494307
 30
0.0
 11
148.187866544
 21
155.8000185926
 31
0.0
  0
LWPOLYLINE
  5
D0
330
1F
100
AcDbEntity
  8
0
  6
Continuous
 62
     7
370
    25
100
AcDbPolyline
 90
       17
 70
   128
 43
0.0
 10
148.1878665445
 20
155.8000185926
 10
148.228268574
 20
155.8949447479
 10
148.288406667
 20
156.0432134376
 10
148.3748000791
 20
156.2545438209
 10
148.4698779795
 20
156.4864423655
 10
148.5622115595
 20
156.715025401
 10
148.6836882891
 20
157.0195186063
 10
148.8159966319
 20
157.3499273166
 10
148.9596240085
 20
157.7062515317
 10
149.1150578073
 20
158.0884912518
 10
149.2827840497
 20
158.4966464767
 10
149.46328597
 20
158.9307172065
 10
149.7310231844
 20
159.5883152875
 10
150.0782341972
 20
160.4531752449
 10
150.4830961816
 20
161.4463486503
 10
150.9001338656
 20
162.4684622743
 10
151.3462769428
 20
163.5653401353
  0
LWPOLYLINE
  5
D1
330
1F
100
AcDbEntity
  8
0
  6
Continuous
 62
     7
370
    25
100
AcDbPolyline
 90
        7
 70
   128
 43
0.0
 10
153.1010016825
 20
167.8794317806
 10
152.7858200973
 20
167.0986650252
 10
152.4548483775
 20
166.2897442953
 10
152.161759619
 20
165.5700743695
 10
151.86543925
 20
164.8451672964
 10
151.6535443429
 20
164.3314002487
 10
151.3462769428
 20
163.5653401353
  0
ARC
  5
D2
330
1F
100
AcDbEntity
  8
0
  6
Continuous
 62
     7
370
    25
100
AcDbCircle
 10
160.15
 20
168.0
 30
0.0
 40
7.050000000000003
100
AcDbArc
 50
180.9799106326
 51
269.1464974287
  0
LWPOLYLINE
  5
D3
330
1F
100
AcDbEntity
  8
0
  6
Continuous
 62
     7
370
    25
100
AcDbPolyline
 90
        7
 70
   128
 43
0.0
 10
160.0449848031
 20
160.9508778376
 10
159.3070202057
 20
160.6060888758
 10
158.6206377869
 20
160.287263079
 10
157.9858846015
 20
159.9897796015
 10
157.4027650424
 20
159.7132070334
 10
156.1287601626
 20
159.1169819163
 10
155.1561703964
 20
158.6612467334
  0
LWPOLYLINE
  5
D4
330
1F
100
AcDbEntity
  8
0
  6
Continuous
 62
     7
370
    25
100
AcDbPolyline
 90
       12
 70
   128
 43
0.0
 10
148.5052970886
 20
155.5451857457
 10
148.976361098
 20
155.7692600733
 10
149.5321077599
 20
156.0300996234
 10
150.1753349436
 20
156.3303081803
 10
150.9084275664
 20
156.6721052225
 10
151.7336223423
 20
157.0575723059
 10
152.6525738229
 20
157.487288979
 10
153.7210208988
 20
157.9879959106
 10
154.2188484664
 20
158.2223198548
 10
154.6248922993
 20
158.4134467286
 10
154.9380554464
 20
158.5603556753
 10
155.156168809
 20
158.6610280638
  0
ARC
  5
D5
330
1F
100
AcDbEntity
  8
0
  6
Continuous
 62
     7
370
    25
100
AcDbCircle
 10
95.4847107474
 20
155.9203311162
 30
0.0
 40
0.3757097901316146
100
AcDbArc
 50
217.8205431389
 51
273.1409920681
  0
LINE
  5
D6
330
1F
100
AcDbEntity
  8
0
  6
Continuous
 62
     7
370
    25
100
AcDbLine
 10
95.1878673279
 20
155.6899494307
 30
0.0
 11
95.187866544
 21
155.8000185926
 31
0.0
  0
LWPOLYLINE
  5
D7
330
1F
100
AcDbEntity
  8
0
  6
Continuous
 62
     7
370
    25
100
AcDbPolyline
 90
       17
 70
   128
 43
0.0
 10
95.1878665445
 20
155.8000185926
 10
95.228268574
 20
155.894944748
 10
95.288406667
 20
156.0432134376
 10
95.3748000791
 20
156.2545438209
 10
95.4698779794
 20
156.4864423654
 10
95.5622115595
 20
156.715025401
 10
95.6836882888
 20
157.0195186054
 10
95.8159966313
 20
157.3499273152
 10
95.9596240078
 20
157.7062515302
 10
96.1150578066
 20
158.0884912504
 10
96.2827840493
 20
158.4966464758
 10
96.46328597
 20
158.9307172065
 10
96.731023185
 20
159.5883152885
 10
97.0782341976
 20
160.4531752456
 10
97.4830961822
 20
161.4463486519
 10
97.9001338665
 20
162.4684622767
 10
98.3462769428
 20
163.5653401353
  0
LWPOLYLINE
  5
D8
330
1F
100
AcDbEntity
  8
0
  6
Continuous
 62
     7
370
    25
100
AcDbPolyline
 90
        7
 70
   128
 43
0.0
 10
100.1010016825
 20
167.8794317806
 10
99.785820098
 20
167.0986650269
 10
99.454848377
 20
166.2897442941
 10
99.161759619
 20
165.5700743695
 10
98.8654392496
 20
164.8451672955
 10
98.6535443429
 20
164.3314002485
 10
98.3462769428
 20
163.5653401353
  0
ARC
  5
D9
330
1F
100
AcDbEntity
  8
0
  6
Continuous
 62
     7
370
    25
100
AcDbCircle
 10
107.15
 20
168.0
 30
0.0
 40
7.050000000000094
100
AcDbArc
 50
180.9799106326
 51
269.1464974287
  0
LWPOLYLINE
  5
DA
330
1F
100
AcDbEntity
  8
0
  6
Continuous
 62
     7
370
    25
100
AcDbPolyline
 90
        7
 70
   128
 43
0.0
 10
107.0449848031
 20
160.9508778376
 10
106.3070202056
 20
160.6060888758
 10
105.6206377869
 20
160.2872630789
 10
104.9858846014
 20
159.9897796015
 10
104.4027650424
 20
159.7132070334
 10
103.1287601626
 20
159.1169819163
 10
102.1561703964
 20
158.6612467334
  0
LWPOLYLINE
  5
DB
330
1F
100
AcDbEntity
  8
0
  6
Continuous
 62
     7
370
    25
100
AcDbPolyline
 90
       12
 70
   128
 43
0.0
 10
95.5052970886
 20
155.5451857457
 10
95.9763610977
 20
155.7692600732
 10
96.5321077594
 20
156.0300996231
 10
97.1753349432
 20
156.3303081801
 10
97.9084275661
 20
156.6721052223
 10
98.7336223423
 20
157.0575723059
 10
99.6525738208
 20
157.487288978
 10
100.7210208988
 20
157.9879959106
 10
101.2188484658
 20
158.2223198545
 10
101.6248922985
 20
158.4134467282
 10
101.9380554458
 20
158.5603556751
 10
102.156168809
 20
158.6610280638
  0
ARC
  5
DC
330
1F
100
AcDbEntity
  8
0
  6
Continuous
 62
     7
370
    25
100
AcDbCircle
 10
121.9847107474
 20
155.9203311162
 30
0.0
 40
0.3757097901316241
100
AcDbArc
 50
217.8205431389
 51
273.1409920681
  0
LINE
  5
DD
330
1F
100
AcDbEntity
  8
0
  6
Continuous
 62
     7
370
    25
100
AcDbLine
 10
121.6878673279
 20
155.6899494307
 30
0.0
 11
121.687866544
 21
155.8000185926
 31
0.0
  0
LWPOLYLINE
  5
DE
330
1F
100
AcDbEntity
  8
0
  6
Continuous
 62
     7
370
    25
100
AcDbPolyline
 90
       17
 70
   128
 43
0.0
 10
121.6878665445
 20
155.8000185926
 10
121.7282685741
 20
155.8949447482
 10
121.7884066671
 20
156.0432134378
 10
121.8748000792
 20
156.2545438212
 10
121.9698779796
 20
156.4864423659
 10
122.0622115595
 20
156.715025401
 10
122.1836882889
 20
157.0195186058
 10
122.3159966315
 20
157.3499273157
 10
122.459624008
 20
157.7062515307
 10
122.6150578069
 20
158.0884912509
 10
122.7827840495
 20
158.4966464761
 10
122.96328597
 20
158.9307172065
 10
123.231023185
 20
159.5883152887
 10
123.5782341976
 20
160.4531752457
 10
123.9830961822
 20
161.4463486518
 10
124.4001338665
 20
162.4684622766
 10
124.8462769428
 20
163.5653401353
  0
LWPOLYLINE
  5
DF
330
1F
100
AcDbEntity
  8
0
  6
Continuous
 62
     7
370
    25
100
AcDbPolyline
 90
        7
 70
   128
 43
0.0
 10
126.6010016825
 20
167.8794317806
 10
126.2858200977
 20
167.0986650262
 10
125.9548483761
 20
166.289744292
 10
125.661759619
 20
165.5700743695
 10
125.3654392496
 20
164.8451672956
 10
125.153544343
 20
164.3314002486
 10
124.8462769428
 20
163.5653401353
  0
ARC
  5
E0
330
1F
100
AcDbEntity
  8
0
  6
Continuous
 62
     7
370
    25
100
AcDbCircle
 10
133.65
 20
168.0
 30
0.0
 40
7.050000000000018
100
AcDbArc
 50
180.9799106326
 51
269.1464974287
  0
LWPOLYLINE
  5
E1
330
1F
100
AcDbEntity
  8
0
  6
Continuous
 62
     7
370
    25
100
AcDbPolyline
 90
        7
 70
   128
 43
0.0
 10
133.5449848031
 20
160.9508778376
 10
132.8070202056
 20
160.6060888758
 10
132.1206377868
 20
160.2872630789
 10
131.4858846014
 20
159.9897796015
 10
130.9027650424
 20
159.7132070334
 10
129.6287601626
 20
159.1169819163
 10
128.6561703964
 20
158.6612467334
  0
LWPOLYLINE
  5
E2
330
1F
100
AcDbEntity
  8
0
  6
Continuous
 62
     7
370
    25
100
AcDbPolyline
 90
       12
 70
   128
 43
0.0
 10
122.0052970886
 20
155.5451857457
 10
122.476361098
 20
155.7692600734
 10
123.03210776
 20
156.0300996234
 10
123.6753349437
 20
156.3303081804
 10
124.4084275665
 20
156.6721052226
 10
125.2336223423
 20
157.0575723059
 10
126.1525738204
 20
157.4872889778
 10
127.2210208988
 20
157.9879959106
 10
127.7188484651
 20
158.2223198542
 10
128.1248922975
 20
158.4134467278
 10
128.4380554451
 20
158.5603556747
 10
128.656168809
 20
158.6610280638
  0
ARC
  5
E3
330
1F
100
AcDbEntity
  8
0
  6
Continuous
 62
     7
370
    25
100
AcDbCircle
 10
174.9669338119
 20
155.8922492452
 30
0.0
 40
0.3446830314544508
100
AcDbArc
 50
215.9384267524
 51
278.5761336477
  0
LINE
  5
E4
330
1F
100
AcDbEntity
  8
0
  6
Continuous
 62
     7
370
    25
100
AcDbLine
 10
174.6878673279
 20
155.6899494375
 30
0.0
 11
174.687866544
 21
155.8000185948
 31
0.0
  0
LWPOLYLINE
  5
E5
330
1F
100
AcDbEntity
  8
0
  6
Continuous
 62
     7
370
    25
100
AcDbPolyline
 90
       11
 70
   128
 43
0.0
 10
177.8462769428
 20
163.5653401353
 10
177.0784824294
 20
161.675612171
 10
176.4056798044
 20
160.0218889003
 10
175.8269450758
 20
158.6041703233
 10
175.5523954342
 20
157.9323636903
 10
175.3022155851
 20
157.3168462136
 10
175.0767850936
 20
156.7576178933
 10
174.9137291798
 20
156.3487075195
 10
174.7929976505
 20
156.0452266317
 10
174.7296215807
 20
155.8901660402
 10
174.6878665446
 20
155.8000185948
  0
LWPOLYLINE
  5
E6
330
1F
100
AcDbEntity
  8
0
  6
Continuous
 62
     7
370
    25
100
AcDbPolyline
 90
        7
 70
   128
 43
0.0
 10
179.6010016623
 20
167.8794307529
 10
179.2858190368
 20
167.0986620013
 10
178.9548467774
 20
166.2897404809
 10
178.6617575976
 20
165.5700696677
 10
178.3654374207
 20
164.8451628012
 10
178.1535384807
 20
164.3313856371
 10
177.8462769428
 20
163.5653401353
  0
ARC
  5
E7
330
1F
100
AcDbEntity
  8
0
  6
Continuous
 62
     7
370
    25
100
AcDbCircle
 10
186.65
 20
168.0
 30
0.0
 40
7.049999999999897
100
AcDbArc
 50
180.9799189644
 51
269.1464974287
  0
LWPOLYLINE
  5
E8
330
1F
100
AcDbEntity
  8
0
  6
Continuous
 62
     7
370
    25
100
AcDbPolyline
 90
        7
 70
   128
 43
0.0
 10
186.5449848031
 20
160.9508778376
 10
185.8079864674
 20
160.6068743667
 10
185.1222870575
 20
160.2884171504
 10
184.4879326145
 20
159.9909848652
 10
183.904926757
 20
159.7142221691
 10
182.631835827
 20
159.1179781332
 10
181.6561703965
 20
158.6612467334
  0
LWPOLYLINE
  5
E9
330
1F
100
AcDbEntity
  8
0
  6
Continuous
 62
     7
370
    25
100
AcDbPolyline
 90
       13
 70
   128
 43
0.0
 10
175.0182960368
 20
155.5512848569
 10
175.5081328533
 20
155.7835527018
 10
176.0757801613
 20
156.0499610007
 10
176.7233741946
 20
156.3524977994
 10
177.4527722886
 20
156.6928915922
 10
178.2656367909
 20
157.0726894118
 10
178.8416413269
 20
157.3418587075
 10
179.5000791985
 20
157.6497251017
 10
180.2430606756
 20
157.9982524773
 10
180.7335400176
 20
158.2292947436
 10
181.1334434692
 20
158.4176018467
 10
181.4416817333
 20
158.5621600525
 10
181.6561688091
 20
158.6610280638
  0
ARC
  5
EA
330
1F
100
AcDbEntity
  8
0
  6
Continuous
 62
     7
370
    25
100
AcDbCircle
 10
145.3320983136
 20
155.8941105163
 30
0.0
 40
0.3465097737982201
100
AcDbArc
 50
261.6375800287
 51
323.9002631821
  0
LWPOLYLINE
  5
EB
330
1F
100
AcDbEntity
  8
0
  6
Continuous
 62
     7
370
    25
100
AcDbPolyline
 90
        9
 70
   128
 43
0.0
 10
145.2816659157
 20
155.5517477364
 10
144.5990763716
 20
155.8726631081
 10
143.8229230218
 20
156.2361264375
 10
142.9532136293
 20
156.6429000688
 10
141.9899535664
 20
157.0935115698
 10
141.0567079455
 20
157.5307358564
 10
140.0588920725
 20
157.9979974841
 10
139.2806261787
 20
158.3648615674
 10
138.6438296037
 20
158.6612467334
  0
LWPOLYLINE
  5
EC
330
1F
100
AcDbEntity
  8
0
  6
Continuous
 62
     7
370
    25
100
AcDbPolyline
 90
        6
 70
   128
 43
0.0
 10
133.755016069
 20
160.9506763829
 10
134.2912401322
 20
160.6951183162
 10
136.3557763654
 20
159.733310214
 10
137.9488014811
 20
158.9822022687
 10
138.402016053
 20
158.7739688122
 10
138.643831191
 20
158.6610280638
  0
ARC
  5
ED
330
1F
100
AcDbEntity
  8
0
  6
Continuous
 62
     7
370
    25
100
AcDbCircle
 10
133.65
 20
168.0
 30
0.0
 40
7.049999999999993
100
AcDbArc
 50
270.8535025712
 51
359.0200749799
  0
LWPOLYLINE
  5
EE
330
1F
100
AcDbEntity
  8
0
  6
Continuous
 62
     7
370
    25
100
AcDbPolyline
 90
        4
 70
   128
 43
0.0
 10
140.698999221
 20
167.8794299995
 10
141.3408471006
 20
166.3003636727
 10
141.9284080055
 20
164.8604630757
 10
142.4537230572
 20
163.5653401353
  0
LWPOLYLINE
  5
EF
330
1F
100
AcDbEntity
  8
0
  6
Continuous
 62
     7
370
    25
100
AcDbPolyline
 90
       13
 70
   128
 43
0.0
 10
145.6121334555
 20
155.8000185971
 10
145.4967934859
 20
156.0697547044
 10
145.3900677992
 20
156.3376484056
 10
145.2656308515
 20
156.6500840508
 10
145.0821098289
 20
157.1067935995
 10
144.8799485801
 20
157.6063219112
 10
144.6590963073
 20
158.148668986
 10
144.4195245995
 20
158.7338348237
 10
144.0610888872
 20
159.6061496938
 10
143.7449164501
 20
160.3912931147
 10
143.3350524723
 20
161.4044661213
 10
142.8971794584
 20
162.476458609
 10
142.4537230572
 20
163.5653401353
  0
LINE
  5
F0
330
1F
100
AcDbEntity
  8
0
  6
Continuous
 62
     7
370
    25
100
AcDbLine
 10
145.612133456
 20
155.8000185971
 30
0.0
 11
145.6121326721
 21
155.6899494269
 31
0.0
  0
ARC
  5
F1
330
1F
100
AcDbEntity
  8
0
  6
Continuous
 62
     7
370
    25
100
AcDbCircle
 10
118.8320983136
 20
155.8941105163
 30
0.0
 40
0.3465097738009258
100
AcDbArc
 50
261.6375800289
 51
323.9002631817
  0
LWPOLYLINE
  5
F2
330
1F
100
AcDbEntity
  8
0
  6
Continuous
 62
     7
370
    25
100
AcDbPolyline
 90
        9
 70
   128
 43
0.0
 10
118.7816659157
 20
155.5517477364
 10
118.0990763715
 20
155.8726631081
 10
117.3229230217
 20
156.2361264375
 10
116.4532136292
 20
156.6429000689
 10
115.4899535664
 20
157.0935115698
 10
114.5567079456
 20
157.5307358563
 10
113.5588920725
 20
157.9979974841
 10
112.7806261791
 20
158.3648615672
 10
112.1438296037
 20
158.6612467334
  0
LWPOLYLINE
  5
F3
330
1F
100
AcDbEntity
  8
0
  6
Continuous
 62
     7
370
    25
100
AcDbPolyline
 90
        6
 70
   128
 43
0.0
 10
107.255016069
 20
160.9506763829
 10
107.791240133
 20
160.6951183158
 10
109.8557763654
 20
159.733310214
 10
111.4488014802
 20
158.9822022692
 10
111.9020160523
 20
158.7739688125
 10
112.143831191
 20
158.6610280638
  0
ARC
  5
F4
330
1F
100
AcDbEntity
  8
0
  6
Continuous
 62
     7
370
    25
100
AcDbCircle
 10
107.15
 20
168.0
 30
0.0
 40
7.050000000000007
100
AcDbArc
 50
270.8535025712
 51
359.0200749799
  0
LWPOLYLINE
  5
F5
330
1F
100
AcDbEntity
  8
0
  6
Continuous
 62
     7
370
    25
100
AcDbPolyline
 90
        4
 70
   128
 43
0.0
 10
114.198999221
 20
167.8794299995
 10
114.8408471016
 20
166.3003636704
 10
115.4284080058
 20
164.8604630749
 10
115.9537230572
 20
163.5653401353
  0
LWPOLYLINE
  5
F6
330
1F
100
AcDbEntity
  8
0
  6
Continuous
 62
     7
370
    25
100
AcDbPolyline
 90
       13
 70
   128
 43
0.0
 10
119.1121334555
 20
155.8000185971
 10
118.9967934859
 20
156.0697547044
 10
118.8900677992
 20
156.3376484057
 10
118.7656308515
 20
156.6500840508
 10
118.582109829
 20
157.1067935993
 10
118.3799485802
 20
157.606321911
 10
118.1590963074
 20
158.1486689858
 10
117.9195245995
 20
158.7338348237
 10
117.5610888869
 20
159.6061496944
 10
117.2449164494
 20
160.3912931166
 10
116.8350524722
 20
161.4044661215
 10
116.3971794583
 20
162.4764586093
 10
115.9537230572
 20
163.5653401353
  0
LINE
  5
F7
330
1F
100
AcDbEntity
  8
0
  6
Continuous
 62
     7
370
    25
100
AcDbLine
 10
119.112133456
 20
155.8000185971
 30
0.0
 11
119.1121326721
 21
155.6899494269
 31
0.0
  0
ARC
  5
F8
330
1F
100
AcDbEntity
  8
0
  6
Continuous
 62
     7
370
    25
100
AcDbCircle
 10
92.3320983136
 20
155.8941105163
 30
0.0
 40
0.34650977379439
100
AcDbArc
 50
261.6375800283
 51
323.9002631824
  0
LWPOLYLINE
  5
F9
330
1F
100
AcDbEntity
  8
0
  6
Continuous
 62
     7
370
    25
100
AcDbPolyline
 90
        9
 70
   128
 43
0.0
 10
92.2816659157
 20
155.5517477364
 10
91.5990763715
 20
155.8726631081
 10
90.8229230217
 20
156.2361264375
 10
89.9532136292
 20
156.6429000689
 10
88.9899535664
 20
157.0935115699
 10
88.0567079453
 20
157.5307358565
 10
87.0588920725
 20
157.9979974841
 10
86.2806261787
 20
158.3648615674
 10
85.6438296037
 20
158.6612467334
  0
LWPOLYLINE
  5
FA
330
1F
100
AcDbEntity
  8
0
  6
Continuous
 62
     7
370
    25
100
AcDbPolyline
 90
        6
 70
   128
 43
0.0
 10
80.755016069
 20
160.9506763829
 10
81.2912401327
 20
160.6951183159
 10
83.3557763654
 20
159.733310214
 10
84.9488014806
 20
158.982202269
 10
85.4020160526
 20
158.7739688123
 10
85.643831191
 20
158.6610280638
  0
ARC
  5
FB
330
1F
100
AcDbEntity
  8
0
  6
Continuous
 62
     7
370
    25
100
AcDbCircle
 10
80.65
 20
168.0
 30
0.0
 40
7.050000000000011
100
AcDbArc
 50
270.8535025712
 51
359.0200749799
  0
LWPOLYLINE
  5
FC
330
1F
100
AcDbEntity
  8
0
  6
Continuous
 62
     7
370
    25
100
AcDbPolyline
 90
        4
 70
   128
 43
0.0
 10
87.698999221
 20
167.8794299995
 10
88.340847101
 20
166.3003636718
 10
88.9284080056
 20
164.8604630755
 10
89.4537230572
 20
163.5653401353
  0
LWPOLYLINE
  5
FD
330
1F
100
AcDbEntity
  8
0
  6
Continuous
 62
     7
370
    25
100
AcDbPolyline
 90
       13
 70
   128
 43
0.0
 10
92.6121334555
 20
155.8000185971
 10
92.496793486
 20
156.0697547043
 10
92.3900677994
 20
156.3376484053
 10
92.2656308515
 20
156.6500840508
 10
92.082109829
 20
157.1067935993
 10
91.8799485802
 20
157.6063219109
 10
91.6590963075
 20
158.1486689856
 10
91.4195245997
 20
158.7338348234
 10
91.0610888869
 20
159.6061496942
 10
90.7449164491
 20
160.3912931171
 10
90.335052472
 20
161.4044661221
 10
89.8971794579
 20
162.4764586103
 10
89.4537230572
 20
163.5653401353
  0
LINE
  5
FE
330
1F
100
AcDbEntity
  8
0
  6
Continuous
 62
     7
370
    25
100
AcDbLine
 10
92.612133456
 20
155.8000185971
 30
0.0
 11
92.6121326721
 21
155.6899494269
 31
0.0
  0
ARC
  5
FF
330
1F
100
AcDbEntity
  8
0
  6
Continuous
 62
     7
370
    25
100
AcDbCircle
 10
171.8209038969
 20
155.9092732596
 30
0.0
 40
0.3645822095890493
100
AcDbArc
 50
265.8679713555
 51
323.017157932
  0
LWPOLYLINE
  5
100
330
1F
100
AcDbEntity
  8
0
  6
Continuous
 62
     7
370
    25
100
AcDbPolyline
 90
        8
 70
   128
 43
0.0
 10
171.7946419686
 20
155.5456352006
 10
170.8637075829
 20
155.9829361719
 10
169.7655910944
 20
156.496738329
 10
168.5003082578
 20
157.0885888038
 10
167.5618865988
 20
157.5283050207
 10
166.5609366065
 20
157.9970407155
 10
165.7810377076
 20
158.3646483987
 10
165.1438296037
 20
158.6612467334
  0
ARC
  5
101
330
1F
100
AcDbEntity
  8
0
  6
Continuous
 62
     7
370
    25
100
AcDbCircle
 10
307.3095995218
 20
468.5748491052
 30
0.0
 40
340.9658079009567
100
AcDbArc
 50
244.4506495986
 51
245.357808752
  0
ARC
  5
102
330
1F
100
AcDbEntity
  8
0
  6
Continuous
 62
     7
370
    25
100
AcDbCircle
 10
160.15
 20
168.0
 30
0.0
 40
7.050000000000181
100
AcDbArc
 50
270.8535025713
 51
359.0200863916
  0
LWPOLYLINE
  5
103
330
1F
100
AcDbEntity
  8
0
  6
Continuous
 62
     7
370
    25
100
AcDbPolyline
 90
        6
 70
   128
 43
0.0
 10
168.9537230572
 20
163.5653401353
 10
168.6133997731
 20
164.4111979595
 10
168.3204313257
 20
165.1235494661
 10
167.9687760692
 20
165.9865699401
 10
167.5794272103
 20
166.9390299122
 10
167.1989992767
 20
167.8794314118
  0
LWPOLYLINE
  5
104
330
1F
100
AcDbEntity
  8
0
  6
Continuous
 62
     7
370
    25
100
AcDbPolyline
 90
       13
 70
   128
 43
0.0
 10
172.1121334555
 20
155.8000185972
 10
171.9966742282
 20
156.0700494933
 10
171.8898936707
 20
156.3380732128
 10
171.7653940507
 20
156.6506556485
 10
171.5818646425
 20
157.107380742
 10
171.3796787682
 20
157.6069766274
 10
171.1587808128
 20
158.149443305
 10
170.9191376219
 20
158.7347807746
 10
170.5607538255
 20
159.6069727859
 10
170.2445889727
 20
160.3921068887
 10
169.8347473465
 20
161.405216666
 10
169.3969840817
 20
162.4769278732
 10
168.9537230572
 20
163.5653401353
  0
LINE
  5
105
330
1F
100
AcDbEntity
  8
0
  6
Continuous
 62
     7
370
    25
100
AcDbLine
 10
172.112133456
 20
155.8000185972
 30
0.0
 11
172.1121326721
 21
155.6899494179
 31
0.0
  0
ARC
  5
106
330
1F
100
AcDbEntity
  8
0
  6
Continuous
 62
     7
370
    25
100
AcDbCircle
 10
92.3395797294
 20
180.1233324042
 30
0.0
 40
0.3303270092419238
100
AcDbArc
 50
34.4193385263
 51
100.0741053802
  0
LINE
  5
107
330
1F
100
AcDbEntity
  8
0
  6
Continuous
 62
     7
370
    25
100
AcDbLine
 10
92.6121310135
 20
180.310048327
 30
0.0
 11
92.6121330846
 21
180.19998605
 31
0.0
  0
LWPOLYLINE
  5
108
330
1F
100
AcDbEntity
  8
0
  6
Continuous
 62
     7
370
    25
100
AcDbPolyline
 90
       11
 70
   128
 43
0.0
 10
89.4537230572
 20
172.4346596228
 10
89.606479646
 20
172.8218505408
 10
89.7947118673
 20
173.2844750302
 10
90.0154546767
 20
173.822533091
 10
90.3580363434
 20
174.6572363528
 10
90.6935896375
 20
175.4754861912
 10
91.0195255816
 20
176.2772826062
 10
91.4972747344
 20
177.4597591498
 10
91.9100820282
 20
178.4771159467
 10
92.2538841542
 20
179.31301548
 10
92.6121330841
 20
180.19998605
  0
ARC
  5
109
330
1F
100
AcDbEntity
  8
0
  6
Continuous
 62
     7
370
    25
100
AcDbCircle
 10
278.6978065036
 20
92.9472527198
 30
0.0
 40
205.2597646291451
100
AcDbArc
 50
157.2163353009
 51
158.5163960123
  0
ARC
  5
10A
330
1F
100
AcDbEntity
  8
0
  6
Continuous
 62
     7
370
    25
100
AcDbCircle
 10
80.65
 20
168.0
 30
0.0
 40
7.050000000000047
100
AcDbArc
 50
0.9797976451
 51
89.1455986706
  0
LWPOLYLINE
  5
10B
330
1F
100
AcDbEntity
  8
0
  6
Continuous
 62
     7
370
    25
100
AcDbPolyline
 90
        7
 70
   128
 43
0.0
 10
85.643831191
 20
177.3389719362
 10
84.8909318516
 20
176.9896716317
 10
83.3455606796
 20
176.2618132881
 10
82.2451776453
 20
175.746168826
 10
81.2487766823
 20
175.2841758817
 10
80.937557276
 20
175.136923957
 10
80.7551270412
 20
175.0493500034
  0
LWPOLYLINE
  5
10C
330
1F
100
AcDbEntity
  8
0
  6
Continuous
 62
     7
370
    25
100
AcDbPolyline
 90
       14
 70
   128
 43
0.0
 10
92.2817983457
 20
180.4485665425
 10
91.9264058232
 20
180.2801517149
 10
91.536884866
 20
180.0966880917
 10
91.1127093329
 20
179.8976860296
 10
90.6533713303
 20
179.6826728668
 10
90.158556935
 20
179.4513564567
 10
89.6279587936
 20
179.2034507666
 10
89.0611755535
 20
178.9385822853
 10
88.5679117063
 20
178.7088027207
 10
87.9212460409
 20
178.4075033266
 10
87.1162974205
 20
178.0301415648
 10
86.4729816451
 20
177.726759569
 10
85.9808154015
 20
177.4951187688
 10
85.643831191
 20
177.3389719362
  0
ARC
  5
10D
330
1F
100
AcDbEntity
  8
0
  6
Continuous
 62
     7
370
    25
100
AcDbCircle
 10
118.8395797294
 20
180.1233324042
 30
0.0
 40
0.3303270092375032
100
AcDbArc
 50
34.4193385257
 51
100.0741053806
  0
LINE
  5
10E
330
1F
100
AcDbEntity
  8
0
  6
Continuous
 62
     7
370
    25
100
AcDbLine
 10
119.1121310135
 20
180.310048327
 30
0.0
 11
119.1121330846
 21
180.19998605
 31
0.0
  0
LWPOLYLINE
  5
10F
330
1F
100
AcDbEntity
  8
0
  6
Continuous
 62
     7
370
    25
100
AcDbPolyline
 90
       11
 70
   128
 43
0.0
 10
115.9537230572
 20
172.4346596228
 10
116.1064796464
 20
172.8218505418
 10
116.2947118677
 20
173.2844750312
 10
116.5154546767
 20
173.822533091
 10
116.8580363443
 20
174.6572363549
 10
117.1935896383
 20
175.4754861933
 10
117.5195255816
 20
176.2772826062
 10
117.9972747349
 20
177.4597591509
 10
118.4100820282
 20
178.4771159467
 10
118.7538841542
 20
179.31301548
 10
119.1121330841
 20
180.19998605
  0
ARC
  5
110
330
1F
100
AcDbEntity
  8
0
  6
Continuous
 62
     7
370
    25
100
AcDbCircle
 10
305.1978048325
 20
92.9472533995
 30
0.0
 40
205.2597628252715
100
AcDbArc
 50
157.2163352952
 51
158.516396018
  0
ARC
  5
111
330
1F
100
AcDbEntity
  8
0
  6
Continuous
 62
     7
370
    25
100
AcDbCircle
 10
107.15
 20
168.0
 30
0.0
 40
7.050000000000021
100
AcDbArc
 50
0.9797976451
 51
89.1455986705
  0
LWPOLYLINE
  5
112
330
1F
100
AcDbEntity
  8
0
  6
Continuous
 62
     7
370
    25
100
AcDbPolyline
 90
        7
 70
   128
 43
0.0
 10
112.143831191
 20
177.3389719362
 10
111.3909318499
 20
176.9896716308
 10
109.8455606795
 20
176.2618132881
 10
108.7451776453
 20
175.746168826
 10
107.7487766823
 20
175.2841758817
 10
107.4375572761
 20
175.136923957
 10
107.2551270412
 20
175.0493500034
  0
LWPOLYLINE
  5
113
330
1F
100
AcDbEntity
  8
0
  6
Continuous
 62
     7
370
    25
100
AcDbPolyline
 90
       14
 70
   128
 43
0.0
 10
118.7817983457
 20
180.4485665425
 10
118.4264058234
 20
180.280151715
 10
118.0368848662
 20
180.0966880918
 10
117.6127093333
 20
179.8976860297
 10
117.1533713307
 20
179.682672867
 10
116.6585569353
 20
179.4513564568
 10
116.1279587939
 20
179.2034507667
 10
115.5611755537
 20
178.9385822854
 10
115.0679117063
 20
178.7088027207
 10
114.4212460409
 20
178.4075033266
 10
113.6162974207
 20
178.0301415649
 10
112.9729816453
 20
177.726759569
 10
112.4808154016
 20
177.4951187689
 10
112.143831191
 20
177.3389719362
  0
ARC
  5
114
330
1F
100
AcDbEntity
  8
0
  6
Continuous
 62
     7
370
    25
100
AcDbCircle
 10
145.3395797294
 20
180.1233324042
 30
0.0
 40
0.3303270092546564
100
AcDbArc
 50
34.4193385276
 51
100.0741053787
  0
LINE
  5
115
330
1F
100
AcDbEntity
  8
0
  6
Continuous
 62
     7
370
    25
100
AcDbLine
 10
145.6121310135
 20
180.310048327
 30
0.0
 11
145.6121330846
 21
180.19998605
 31
0.0
  0
LWPOLYLINE
  5
116
330
1F
100
AcDbEntity
  8
0
  6
Continuous
 62
     7
370
    25
100
AcDbPolyline
 90
       11
 70
   128
 43
0.0
 10
142.4537230572
 20
172.4346596228
 10
142.6064796461
 20
172.821850541
 10
142.7947118673
 20
173.2844750304
 10
143.0154546766
 20
173.8225330908
 10
143.3580363439
 20
174.6572363541
 10
143.693589638
 20
175.4754861925
 10
144.0195255816
 20
176.2772826062
 10
144.4972747349
 20
177.4597591509
 10
144.9100820282
 20
178.4771159467
 10
145.2538841542
 20
179.31301548
 10
145.6121330841
 20
180.19998605
  0
ARC
  5
117
330
1F
100
AcDbEntity
  8
0
  6
Continuous
 62
     7
370
    25
100
AcDbCircle
 10
331.6978064001
 20
92.9472527619
 30
0.0
 40
205.2597645174179
100
AcDbArc
 50
157.2163353005
 51
158.5163960126
  0
ARC
  5
118
330
1F
100
AcDbEntity
  8
0
  6
Continuous
 62
     7
370
    25
100
AcDbCircle
 10
133.65
 20
168.0
 30
0.0
 40
7.050000000000034
100
AcDbArc
 50
0.9797976451
 51
89.1455986705
  0
LWPOLYLINE
  5
119
330
1F
100
AcDbEntity
  8
0
  6
Continuous
 62
     7
370
    25
100
AcDbPolyline
 90
        7
 70
   128
 43
0.0
 10
138.643831191
 20
177.3389719362
 10
137.8909318512
 20
176.9896716314
 10
136.3455606796
 20
176.2618132881
 10
135.2451776453
 20
175.746168826
 10
134.2487766828
 20
175.2841758819
 10
133.9375572764
 20
175.1369239572
 10
133.7551270412
 20
175.0493500034
  0
LWPOLYLINE
  5
11A
330
1F
100
AcDbEntity
  8
0
  6
Continuous
 62
     7
370
    25
100
AcDbPolyline
 90
       14
 70
   128
 43
0.0
 10
145.2817983457
 20
180.4485665425
 10
144.9264058231
 20
180.2801517149
 10
144.5368848658
 20
180.0966880916
 10
144.1127093327
 20
179.8976860295
 10
143.6533713301
 20
179.6826728667
 10
143.1585569349
 20
179.4513564566
 10
142.6279587936
 20
179.2034507666
 10
142.0611755537
 20
178.9385822854
 10
141.5679117051
 20
178.7088027202
 10
140.9212460396
 20
178.407503326
 10
140.1162974207
 20
178.0301415649
 10
139.4729816451
 20
177.7267595689
 10
138.9808154014
 20
177.4951187688
 10
138.643831191
 20
177.3389719362
  0
ARC
  5
11B
330
1F
100
AcDbEntity
  8
0
  6
Continuous
 62
     7
370
    25
100
AcDbCircle
 10
174.9555179989
 20
180.1347194974
 30
0.0
 40
0.3199676452298691
100
AcDbArc
 50
78.6965211388
 51
146.7729585273
  0
LWPOLYLINE
  5
11C
330
1F
100
AcDbEntity
  8
0
  6
Continuous
 62
     7
370
    25
100
AcDbPolyline
 90
        9
 70
   128
 43
0.0
 10
175.0182334723
 20
180.4481536187
 10
175.6983119436
 20
180.1286840841
 10
176.4663023587
 20
179.7686404317
 10
177.3222018846
 20
179.3677444397
 10
178.2660100889
 20
178.9259536637
 10
179.1697202375
 20
178.5036369556
 10
180.1771872336
 20
178.0326407274
 10
180.9797743947
 20
177.6535593612
 10
181.6561703965
 20
177.3387532666
  0
ARC
  5
11D
330
1F
100
AcDbEntity
  8
0
  6
Continuous
 62
     7
370
    25
100
AcDbCircle
 10
221.4283294213
 20
255.8952958516
 30
0.0
 40
88.05086607413494
100
AcDbArc
 50
243.1474976702
 51
246.660792252
  0
ARC
  5
11E
330
1F
100
AcDbEntity
  8
0
  6
Continuous
 62
     7
370
    25
100
AcDbCircle
 10
186.65
 20
168.0
 30
0.0
 40
7.050000000000016
100
AcDbArc
 50
90.8544013302
 51
179.0202043133
  0
ARC
  5
11F
330
1F
100
AcDbEntity
  8
0
  6
Continuous
 62
     7
370
    25
100
AcDbCircle
 10
-58.4148110816
 20
73.8234649023
 30
0.0
 40
256.01458833181
100
AcDbArc
 50
21.6124769103
 51
22.6547930102
  0
LWPOLYLINE
  5
120
330
1F
100
AcDbEntity
  8
0
  6
Continuous
 62
     7
370
    25
100
AcDbPolyline
 90
       11
 70
   128
 43
0.0
 10
177.8462769428
 20
172.4346596228
 10
177.6421405875
 20
172.9453950512
 10
177.4508381916
 20
173.4110424603
 10
177.2002524743
 20
174.0259675954
 10
176.912701228
 20
174.7299455292
 10
176.630550735
 20
175.4181810187
 10
176.3553014064
 20
176.0906740639
 10
175.8294733501
 20
177.3907206233
 10
175.4084307304
 20
178.4335905876
 10
175.0200836731
 20
179.3784073144
 10
174.6878669159
 20
180.1999860551
  0
LINE
  5
121
330
1F
100
AcDbEntity
  8
0
  6
Continuous
 62
     7
370
    25
100
AcDbLine
 10
174.6878669154
 20
180.1999860551
 30
0.0
 11
174.6878689866
 21
180.3100483497
 31
0.0
  0
ARC
  5
122
330
1F
100
AcDbEntity
  8
0
  6
Continuous
 62
     7
370
    25
100
AcDbCircle
 10
171.8327189875
 20
180.1072600193
 30
0.0
 40
0.345250176747876
100
AcDbArc
 50
35.9703276295
 51
98.5231795693
  0
LINE
  5
123
330
1F
100
AcDbEntity
  8
0
  6
Continuous
 62
     7
370
    25
100
AcDbLine
 10
172.1121310134
 20
180.3100482978
 30
0.0
 11
172.1121330846
 21
180.1999860483
 31
0.0
  0
LWPOLYLINE
  5
124
330
1F
100
AcDbEntity
  8
0
  6
Continuous
 62
     7
370
    25
100
AcDbPolyline
 90
       13
 70
   128
 43
0.0
 10
168.9537230572
 20
172.4346596228
 10
169.0283901186
 20
172.6230427519
 10
169.1511882422
 20
172.9243905116
 10
169.2838994486
 20
173.2489213729
 10
169.4224631462
 20
173.5878433114
 10
169.5663750651
 20
173.9411563271
 10
169.8993864221
 20
174.7582977269
 10
170.2220339503
 20
175.5470239833
 10
170.5325632117
 20
176.3073350963
 10
171.0618911095
 20
177.6164153131
 10
171.4446437737
 20
178.5634229158
 10
171.7889220142
 20
179.4014023038
 10
172.1121330841
 20
180.1999860483
  0
LWPOLYLINE
  5
125
330
1F
100
AcDbEntity
  8
0
  6
Continuous
 62
     7
370
    25
100
AcDbPolyline
 90
        5
 70
   128
 43
0.0
 10
168.9537230572
 20
172.4346596228
 10
168.5873635065
 20
171.5292935899
 10
168.1726141669
 20
170.5152241026
 10
167.7020374342
 20
169.3606790547
 10
167.1989965695
 20
168.1205553429
  0
ARC
  5
126
330
1F
100
AcDbEntity
  8
0
  6
Continuous
 62
     7
370
    25
100
AcDbCircle
 10
160.15
 20
168.0
 30
0.0
 40
7.049999999999931
100
AcDbArc
 50
0.9798062635
 51
89.1455986705
  0
LWPOLYLINE
  5
127
330
1F
100
AcDbEntity
  8
0
  6
Continuous
 62
     7
370
    25
100
AcDbPolyline
 90
        7
 70
   128
 43
0.0
 10
165.143831191
 20
177.3389719362
 10
164.3330363777
 20
176.9621444056
 10
162.8180673599
 20
176.2490317343
 10
161.7173326558
 20
175.733709378
 10
160.7367595959
 20
175.2784790155
 10
160.4320662116
 20
175.1342470121
 10
160.2551270412
 20
175.0493500034
  0
LWPOLYLINE
  5
128
330
1F
100
AcDbEntity
  8
0
  6
Continuous
 62
     7
370
    25
100
AcDbPolyline
 90
       11
 70
   128
 43
0.0
 10
171.781595095
 20
180.4488915382
 10
171.2018097078
 20
180.1755156871
 10
170.375175821
 20
179.7898862659
 10
169.4889095575
 20
179.3748774349
 10
168.5527428056
 20
178.9364329033
 10
167.6111751548
 20
178.4958298747
 10
166.5500363649
 20
177.9983190841
 10
166.0545669768
 20
177.765128289
 10
165.6540852932
 20
177.5766155747
 10
165.3498250077
 20
177.4339290548
 10
165.143831191
 20
177.3389719362
  0
ARC
  5
129
330
1F
100
AcDbEntity
  8
0
  6
Continuous
 62
     7
370
    25
100
AcDbCircle
 10
95.4564209388
 20
180.1331542121
 30
0.0
 40
0.3215821173259144
100
AcDbArc
 50
78.8786084155
 51
146.6278775663
  0
LWPOLYLINE
  5
12A
330
1F
100
AcDbEntity
  8
0
  6
Continuous
 62
     7
370
    25
100
AcDbPolyline
 90
        8
 70
   128
 43
0.0
 10
95.5184502677
 20
180.4483698635
 10
96.4453485563
 20
180.0126988736
 10
97.5424294686
 20
179.4996796999
 10
98.8096711902
 20
178.9071701228
 10
99.7593696305
 20
178.4617693799
 10
100.7560765495
 20
177.9947612288
 10
101.5301062227
 20
177.6302064859
 10
102.1561703964
 20
177.3387532666
  0
ARC
  5
12B
330
1F
100
AcDbEntity
  8
0
  6
Continuous
 62
     7
370
    25
100
AcDbCircle
 10
-15.4101487936
 20
-80.0496532901
 30
0.0
 40
282.9675444952894
100
AcDbArc
 50
64.3576072662
 51
65.4506826575
  0
ARC
  5
12C
330
1F
100
AcDbEntity
  8
0
  6
Continuous
 62
     7
370
    25
100
AcDbCircle
 10
107.15
 20
168.0
 30
0.0
 40
7.050000000000121
100
AcDbArc
 50
90.8544013295
 51
179.0202041726
  0
ARC
  5
12D
330
1F
100
AcDbEntity
  8
0
  6
Continuous
 62
     7
370
    25
100
AcDbCircle
 10
71.3200613918
 20
158.9280554266
 30
0.0
 40
30.21331964419707
100
AcDbArc
 50
17.7132391623
 51
26.5540200059
  0
LWPOLYLINE
  5
12E
330
1F
100
AcDbEntity
  8
0
  6
Continuous
 62
     7
370
    25
100
AcDbPolyline
 90
       13
 70
   128
 43
0.0
 10
98.3462769428
 20
172.4346596228
 10
98.2500258361
 20
172.6798066003
 10
98.119065867
 20
173.001751087
 10
97.9552457254
 20
173.4004930829
 10
97.7609597268
 20
173.8760325881
 10
97.519055481
 20
174.4699909923
 10
97.2806011993
 20
175.0526345105
 10
97.0464546158
 20
175.6239631428
 10
96.8175059986
 20
176.1839768891
 10
96.29772661
 20
177.4683910612
 10
95.8767500043
 20
178.5100062413
 10
95.5012748091
 20
179.4271032835
 10
95.1878669159
 20
180.1999860468
  0
LINE
  5
12F
330
1F
100
AcDbEntity
  8
0
  6
Continuous
 62
     7
370
    25
100
AcDbLine
 10
95.1878669154
 20
180.1999860468
 30
0.0
 11
95.1878689866
 21
180.310048321
 31
0.0
  0
ARC
  5
130
330
1F
100
AcDbEntity
  8
0
  6
Continuous
 62
     7
370
    25
100
AcDbCircle
 10
148.4564209388
 20
180.1331542121
 30
0.0
 40
0.3215821173385298
100
AcDbArc
 50
78.878608417
 51
146.6278775648
  0
LWPOLYLINE
  5
131
330
1F
100
AcDbEntity
  8
0
  6
Continuous
 62
     7
370
    25
100
AcDbPolyline
 90
        8
 70
   128
 43
0.0
 10
148.5184502677
 20
180.4483698635
 10
149.4453485565
 20
180.0126988735
 10
150.5424294688
 20
179.4996796998
 10
151.8096711902
 20
178.9071701228
 10
152.7593696311
 20
178.4617693796
 10
153.7560765495
 20
177.9947612288
 10
154.5301062228
 20
177.6302064859
 10
155.1561703964
 20
177.3387532666
  0
ARC
  5
132
330
1F
100
AcDbEntity
  8
0
  6
Continuous
 62
     7
370
    25
100
AcDbCircle
 10
37.5898558571
 20
-80.04964336
 30
0.0
 40
282.967533530573
100
AcDbArc
 50
64.357607245
 51
65.4506826787
  0
ARC
  5
133
330
1F
100
AcDbEntity
  8
0
  6
Continuous
 62
     7
370
    25
100
AcDbCircle
 10
160.15
 20
168.0
 30
0.0
 40
7.050000000000003
100
AcDbArc
 50
90.8544013295
 51
179.0202041726
  0
ARC
  5
134
330
1F
100
AcDbEntity
  8
0
  6
Continuous
 62
     7
370
    25
100
AcDbCircle
 10
124.3200591699
 20
158.9280545228
 30
0.0
 40
30.21332203573958
100
AcDbArc
 50
17.7132395129
 51
26.5540196553
  0
LWPOLYLINE
  5
135
330
1F
100
AcDbEntity
  8
0
  6
Continuous
 62
     7
370
    25
100
AcDbPolyline
 90
       13
 70
   128
 43
0.0
 10
151.3462769428
 20
172.4346596228
 10
151.2500258358
 20
172.6798066012
 10
151.1190658665
 20
173.0017510882
 10
150.955245725
 20
173.4004930838
 10
150.7609597268
 20
173.8760325881
 10
150.5190554806
 20
174.4699909932
 10
150.2806011988
 20
175.0526345117
 10
150.0464546155
 20
175.6239631437
 10
149.8175059986
 20
176.183976889
 10
149.2977266103
 20
177.4683910606
 10
148.8767500043
 20
178.5100062413
 10
148.5012748093
 20
179.4271032831
 10
148.1878669159
 20
180.1999860468
  0
LINE
  5
136
330
1F
100
AcDbEntity
  8
0
  6
Continuous
 62
     7
370
    25
100
AcDbLine
 10
148.1878669154
 20
180.1999860468
 30
0.0
 11
148.1878689866
 21
180.310048321
 31
0.0
  0
ARC
  5
137
330
1F
100
AcDbEntity
  8
0
  6
Continuous
 62
     7
370
    25
100
AcDbCircle
 10
121.9564209388
 20
180.1331542121
 30
0.0
 40
0.3215821173287022
100
AcDbArc
 50
78.8786084159
 51
146.627877566
  0
LWPOLYLINE
  5
138
330
1F
100
AcDbEntity
  8
0
  6
Continuous
 62
     7
370
    25
100
AcDbPolyline
 90
        8
 70
   128
 43
0.0
 10
122.0184502677
 20
180.4483698635
 10
122.9453485562
 20
180.0126988736
 10
124.0424294686
 20
179.4996796999
 10
125.3096711902
 20
178.9071701228
 10
126.2593696305
 20
178.4617693799
 10
127.2560765495
 20
177.9947612288
 10
128.0301062226
 20
177.6302064859
 10
128.6561703964
 20
177.3387532666
  0
ARC
  5
139
330
1F
100
AcDbEntity
  8
0
  6
Continuous
 62
     7
370
    25
100
AcDbCircle
 10
11.0898531824
 20
-80.049649071
 30
0.0
 40
282.9675398365978
100
AcDbArc
 50
64.3576072572
 51
65.4506826665
  0
ARC
  5
13A
330
1F
100
AcDbEntity
  8
0
  6
Continuous
 62
     7
370
    25
100
AcDbCircle
 10
133.65
 20
168.0
 30
0.0
 40
7.050000000000061
100
AcDbArc
 50
90.8544013295
 51
179.0202041726
  0
ARC
  5
13B
330
1F
100
AcDbEntity
  8
0
  6
Continuous
 62
     7
370
    25
100
AcDbCircle
 10
97.8200616116
 20
158.9280555159
 30
0.0
 40
30.2133194076609
100
AcDbArc
 50
17.7132391276
 51
26.5540200406
  0
LWPOLYLINE
  5
13C
330
1F
100
AcDbEntity
  8
0
  6
Continuous
 62
     7
370
    25
100
AcDbPolyline
 90
       13
 70
   128
 43
0.0
 10
124.8462769428
 20
172.4346596228
 10
124.7500258359
 20
172.6798066009
 10
124.6190658667
 20
173.0017510878
 10
124.4552457251
 20
173.4004930835
 10
124.2609597268
 20
173.8760325881
 10
124.0190554809
 20
174.4699909925
 10
123.7806011991
 20
175.0526345107
 10
123.5464546157
 20
175.6239631429
 10
123.3175059986
 20
176.183976889
 10
122.7977266103
 20
177.4683910604
 10
122.3767500043
 20
178.5100062413
 10
122.0012748092
 20
179.4271032833
 10
121.6878669159
 20
180.1999860468
  0
LINE
  5
13D
330
1F
100
AcDbEntity
  8
0
  6
Continuous
 62
     7
370
    25
100
AcDbLine
 10
121.6878669154
 20
180.1999860468
 30
0.0
 11
121.6878689866
 21
180.310048321
 31
0.0
  0
LINE
  5
13E
330
1F
100
AcDbEntity
  8
0
  6
Continuous
 62
     7
370
    25
100
AcDbLine
 10
175.0182334762
 20
180.4484806532
 30
0.0
 11
174.9712856065
 21
180.6082979978
 31
0.0
  0
LINE
  5
13F
330
1F
100
AcDbEntity
  8
0
  6
Continuous
 62
     7
370
    25
100
AcDbLine
 10
198.5976081347
 20
181.0000072614
 30
0.0
 11
174.9712856054
 21
180.6083019838
 31
0.0
  0
LINE
  5
140
330
1F
100
AcDbEntity
  8
0
  6
Continuous
 62
     7
370
    25
100
AcDbLine
 10
186.7490664224
 20
175.0493039262
 30
0.0
 11
186.5448734761
 21
175.049216156
 31
0.0
  0
LINE
  5
141
330
1F
100
AcDbEntity
  8
0
  6
Continuous
 62
     7
370
    25
100
AcDbLine
 10
174.9713213627
 20
155.3917440223
 30
0.0
 11
175.0183341408
 21
155.5514202582
 31
0.0
  0
LINE
  5
142
330
1F
100
AcDbEntity
  8
0
  6
Continuous
 62
     7
370
    25
100
AcDbLine
 10
186.5449840522
 20
160.9507821958
 30
0.0
 11
186.7490281034
 21
160.9506955354
 31
0.0
  0
LINE
  5
143
330
1F
100
AcDbEntity
  8
0
  6
Continuous
 62
     7
370
    25
100
AcDbLine
 10
198.5976101404
 20
154.9999932348
 30
0.0
 11
174.9713213617
 21
155.3917403252
 31
0.0
  0
LINE
  5
144
330
1F
100
AcDbEntity
  8
0
  6
Continuous
 62
     7
370
    25
100
AcDbLine
 10
80.6500011546
 20
155.1846662358
 30
0.0
 11
92.3286798029
 21
155.3917391824
 31
0.0
  0
LINE
  5
145
330
1F
100
AcDbEntity
  8
0
  6
Continuous
 62
     7
370
    25
100
AcDbLine
 10
68.7023917255
 20
154.9999934221
 30
0.0
 11
80.6500011546
 21
155.1846662358
 31
0.0
  0
LINE
  5
146
330
1F
100
AcDbEntity
  8
0
  6
Continuous
 62
     7
370
    25
100
AcDbLine
 10
80.5509718928
 20
160.9506955354
 30
0.0
 11
80.7550159478
 21
160.9507821958
 31
0.0
  0
LWPOLYLINE
  5
147
330
1F
100
AcDbEntity
  8
0
  6
Continuous
 62
     7
370
    25
100
AcDbPolyline
 90
        3
 70
   128
 43
0.0
 10
92.3286798196
 20
155.3917959911
 10
92.287188304
 20
155.4664050844
 10
92.2816659157
 20
155.5517477364
  0
LINE
  5
148
330
1F
100
AcDbEntity
  8
0
  6
Continuous
 62
     7
370
    25
100
AcDbLine
 10
80.7551265239
 20
175.049216156
 30
0.0
 11
80.65
 21
175.05
 31
0.0
  0
LINE
  5
149
330
1F
100
AcDbEntity
  8
0
  6
Continuous
 62
     7
370
    25
100
AcDbLine
 10
80.65
 20
175.05
 30
0.0
 11
80.5508025094
 21
175.049302083
 31
0.0
  0
LINE
  5
14A
330
1F
100
AcDbEntity
  8
0
  6
Continuous
 62
     7
370
    25
100
AcDbLine
 10
80.6502912979
 20
180.8173917433
 30
0.0
 11
68.7023944974
 21
181.0000064338
 31
0.0
  0
LWPOLYLINE
  5
14B
330
1F
100
AcDbEntity
  8
0
  6
Continuous
 62
     7
370
    25
100
AcDbPolyline
 90
       12
 70
   128
 43
0.0
 10
92.3282935086
 20
180.6076844546
 10
86.4892925453
 20
180.7157832516
 10
82.1122306638
 20
180.7926051632
 10
81.0168706664
 20
180.8112267492
 10
80.7424834035
 20
180.8158490215
 10
80.6736129561
 20
180.817004243
 10
80.6562585283
 20
180.8172938904
 10
80.6518515135
 20
180.8173667869
 10
80.6507155558
 20
180.8173852573
 10
80.6504144644
 20
180.8173899983
 10
80.6503054091
 20
180.8173915879
 10
80.6502912979
 20
180.8173917433
  0
LWPOLYLINE
  5
14C
330
1F
100
AcDbEntity
  8
0
  6
Continuous
 62
     7
370
    25
100
AcDbPolyline
 90
        3
 70
   128
 43
0.0
 10
92.2817665277
 20
180.4481536187
 10
92.2881227018
 20
180.5346989397
 10
92.3282935086
 20
180.6076249309
  0
LINE
  5
14D
330
1F
100
AcDbEntity
  8
0
  6
Continuous
 62
     7
370
    25
100
AcDbLine
 10
193.6999445291
 20
168.0
 30
0.0
 11
198.8996969214
 21
168.0
 31
0.0
  0
LINE
  5
14E
330
1F
100
AcDbEntity
  8
0
  6
Continuous
 62
     7
370
    25
100
AcDbLine
 10
193.6989998211
 20
168.1187498289
 30
0.0
 11
193.7
 21
168.0
 31
0.0
  0
LINE
  5
14F
330
1F
100
AcDbEntity
  8
0
  6
Continuous
 62
     7
370
    25
100
AcDbLine
 10
198.900292181
 20
180.6957732328
 30
0.0
 11
198.9002135471
 21
168.0
 31
0.0
  0
LINE
  5
150
330
1F
100
AcDbEntity
  8
0
  6
Continuous
 62
     7
370
    25
100
AcDbLine
 10
68.3997072418
 20
155.3042607615
 30
0.0
 11
68.399786583
 21
168.0
 31
0.0
  0
LINE
  5
151
330
1F
100
AcDbEntity
  8
0
  6
Continuous
 62
     7
370
    25
100
AcDbLine
 10
73.6000429917
 20
168.0
 30
0.0
 11
68.4003030866
 21
168.0
 31
0.0
  0
LINE
  5
152
330
1F
100
AcDbEntity
  8
0
  6
Continuous
 62
     7
370
    25
100
AcDbLine
 10
73.6
 20
168.0
 30
0.0
 11
73.6009996115
 21
167.8812838579
 31
0.0
  0
LINE
  5
153
330
1F
100
AcDbEntity
  8
0
  6
Continuous
 62
     7
370
    25
100
AcDbLine
 10
68.399786583
 20
168.0
 30
0.0
 11
68.3997058593
 21
180.6947831
 31
0.0
  0
LINE
  5
154
330
1F
100
AcDbEntity
  8
0
  6
Continuous
 62
     7
370
    25
100
AcDbLine
 10
73.6010001802
 20
168.1187499048
 30
0.0
 11
73.6
 21
168.0
 31
0.0
  0
LINE
  5
155
330
1F
100
AcDbEntity
  8
0
  6
Continuous
 62
     7
370
    25
100
AcDbLine
 10
193.7
 20
168.0
 30
0.0
 11
193.6990007427
 21
167.8813048856
 31
0.0
  0
LINE
  5
156
330
1F
100
AcDbEntity
  8
0
  6
Continuous
 62
     7
370
    25
100
AcDbLine
 10
198.9002135471
 20
168.0
 30
0.0
 11
198.9002922323
 21
155.3042077507
 31
0.0
  0
LINE
  5
157
330
1F
100
AcDbEntity
  8
0
  6
Continuous
 62
     7
370
    25
100
AcDbLine
 10
68.7023944974
 20
180.9998963537
 30
0.0
 11
198.5976081347
 21
180.9998971787
 31
0.0
  0
LWPOLYLINE
  5
158
330
1F
100
AcDbEntity
  8
0
  6
Continuous
 62
     7
370
    25
100
AcDbPolyline
 90
        3
 70
   128
 43
0.0
 10
173.4002713917
 20
180.9384109239
 10
173.919979038
 20
180.9177107584
 10
173.9379640671
 20
180.9153086369
  0
LWPOLYLINE
  5
159
330
1F
100
AcDbEntity
  8
0
  6
Continuous
 62
     7
370
    25
100
AcDbPolyline
 90
        3
 70
   128
 43
0.0
 10
172.8591423841
 20
180.9144800554
 10
172.8898693079
 20
180.9185403298
 10
173.4002713917
 20
180.9384109239
  0
LINE
  5
15A
330
1F
100
AcDbEntity
  8
0
  6
Continuous
 62
     7
370
    25
100
AcDbLine
 10
171.8281964411
 20
180.6078181752
 30
0.0
 11
160.1500021157
 21
180.8175746565
 31
0.0
  0
LINE
  5
15B
330
1F
100
AcDbEntity
  8
0
  6
Continuous
 62
     7
370
    25
100
AcDbLine
 10
160.1500021157
 20
180.8175746565
 30
0.0
 11
148.4718063696
 21
180.6078180673
 31
0.0
  0
LINE
  5
15C
330
1F
100
AcDbEntity
  8
0
  6
Continuous
 62
     7
370
    25
100
AcDbLine
 10
147.4647594521
 20
180.9138983104
 30
0.0
 11
146.8997286393
 21
180.9384109239
 31
0.0
  0
LINE
  5
15D
330
1F
100
AcDbEntity
  8
0
  6
Continuous
 62
     7
370
    25
100
AcDbLine
 10
146.8997286393
 20
180.9384109239
 30
0.0
 11
146.3349066525
 21
180.913869728
 31
0.0
  0
LINE
  5
15E
330
1F
100
AcDbEntity
  8
0
  6
Continuous
 62
     7
370
    25
100
AcDbLine
 10
145.3281970452
 20
180.6078172323
 30
0.0
 11
133.6499895024
 21
180.817575324
 31
0.0
  0
LINE
  5
15F
330
1F
100
AcDbEntity
  8
0
  6
Continuous
 62
     7
370
    25
100
AcDbLine
 10
133.6499895024
 20
180.817575324
 30
0.0
 11
121.9718053857
 21
180.6078190282
 31
0.0
  0
LINE
  5
160
330
1F
100
AcDbEntity
  8
0
  6
Continuous
 62
     7
370
    25
100
AcDbLine
 10
120.9647449915
 20
180.913899658
 30
0.0
 11
120.3997286393
 21
180.9384109239
 31
0.0
  0
LINE
  5
161
330
1F
100
AcDbEntity
  8
0
  6
Continuous
 62
     7
370
    25
100
AcDbLine
 10
120.3997286393
 20
180.9384109239
 30
0.0
 11
119.8349066525
 21
180.913869728
 31
0.0
  0
LINE
  5
162
330
1F
100
AcDbEntity
  8
0
  6
Continuous
 62
     7
370
    25
100
AcDbLine
 10
118.8281970452
 20
180.6078172323
 30
0.0
 11
107.1499895024
 21
180.817575324
 31
0.0
  0
LINE
  5
163
330
1F
100
AcDbEntity
  8
0
  6
Continuous
 62
     7
370
    25
100
AcDbLine
 10
107.1499895024
 20
180.817575324
 30
0.0
 11
95.4718053857
 21
180.6078190282
 31
0.0
  0
LINE
  5
164
330
1F
100
AcDbEntity
  8
0
  6
Continuous
 62
     7
370
    25
100
AcDbLine
 10
94.4647449915
 20
180.913899658
 30
0.0
 11
93.8997286393
 21
180.9384109239
 31
0.0
  0
LINE
  5
165
330
1F
100
AcDbEntity
  8
0
  6
Continuous
 62
     7
370
    25
100
AcDbLine
 10
93.8997286393
 20
180.9384109239
 30
0.0
 11
93.3349218705
 21
180.9138711477
 31
0.0
  0
LINE
  5
166
330
1F
100
AcDbEntity
  8
0
  6
Continuous
 62
     7
370
    25
100
AcDbLine
 10
198.5976101404
 20
155.0001032421
 30
0.0
 11
68.7023917255
 21
155.0001034281
 31
0.0
  0
LINE
  5
167
330
1F
100
AcDbEntity
  8
0
  6
Continuous
 62
     7
370
    25
100
AcDbLine
 10
199.8056659973
 20
153.0943340027
 30
0.0
 11
67.4943340027
 21
153.0943340027
 31
0.0
  0
LINE
  5
168
330
1F
100
AcDbEntity
  8
0
  6
Continuous
 62
     7
370
    25
100
AcDbLine
 10
67.4943340027
 20
153.0943340027
 30
0.0
 11
67.4943340027
 21
182.9056659973
 31
0.0
  0
LINE
  5
169
330
1F
100
AcDbEntity
  8
0
  6
Continuous
 62
     7
370
    25
100
AcDbLine
 10
199.8056659973
 20
182.9056659973
 30
0.0
 11
67.4943340027
 21
182.9056659973
 31
0.0
  0
LINE
  5
16A
330
1F
100
AcDbEntity
  8
0
  6
Continuous
 62
     7
370
    25
100
AcDbLine
 10
199.8056659973
 20
153.0943340027
 30
0.0
 11
199.8056659973
 21
182.9056659973
 31
0.0
  0
LINE
  5
16B
330
1F
100
AcDbEntity
  8
0
  6
Continuous
 62
     7
370
    25
100
AcDbLine
 10
93.3422097626
 20
155.0854562427
 30
0.0
 11
93.8997309224
 21
155.0615888772
 31
0.0
  0
ARC
  5
16C
330
1F
100
AcDbEntity
  8
0
  6
Continuous
 62
     7
370
    25
100
AcDbCircle
 10
94.1790008815
 20
157.6378118884
 30
0.0
 40
2.591315633648342
100
AcDbArc
 50
263.8131321207
 51
299.9146739481
  0
LINE
  5
16D
330
1F
100
AcDbEntity
  8
0
  6
Continuous
 62
     7
370
    25
100
AcDbLine
 10
95.4713152358
 20
155.3917396894
 30
0.0
 11
107.1499964077
 21
155.1846660374
 31
0.0
  0
LINE
  5
16E
330
1F
100
AcDbEntity
  8
0
  6
Continuous
 62
     7
370
    25
100
AcDbLine
 10
107.1499964077
 20
155.1846660374
 30
0.0
 11
118.8286798029
 21
155.3917391824
 31
0.0
  0
LINE
  5
16F
330
1F
100
AcDbEntity
  8
0
  6
Continuous
 62
     7
370
    25
100
AcDbLine
 10
119.8422097626
 20
155.0854562427
 30
0.0
 11
120.3997309224
 21
155.0615888772
 31
0.0
  0
ARC
  5
170
330
1F
100
AcDbEntity
  8
0
  6
Continuous
 62
     7
370
    25
100
AcDbCircle
 10
120.6790008811
 20
157.6378118906
 30
0.0
 40
2.591315635791914
100
AcDbArc
 50
263.8131321362
 51
299.9146739327
  0
LINE
  5
171
330
1F
100
AcDbEntity
  8
0
  6
Continuous
 62
     7
370
    25
100
AcDbLine
 10
121.9713152358
 20
155.3917396894
 30
0.0
 11
133.6499964077
 21
155.1846660374
 31
0.0
  0
LINE
  5
172
330
1F
100
AcDbEntity
  8
0
  6
Continuous
 62
     7
370
    25
100
AcDbLine
 10
133.6499964077
 20
155.1846660374
 30
0.0
 11
145.3286798029
 21
155.3917391824
 31
0.0
  0
LINE
  5
173
330
1F
100
AcDbEntity
  8
0
  6
Continuous
 62
     7
370
    25
100
AcDbLine
 10
146.3422097626
 20
155.0854562427
 30
0.0
 11
146.8997309224
 21
155.0615888772
 31
0.0
  0
ARC
  5
174
330
1F
100
AcDbEntity
  8
0
  6
Continuous
 62
     7
370
    25
100
AcDbCircle
 10
147.179000882
 20
157.637811886
 30
0.0
 40
2.591315631406044
100
AcDbArc
 50
263.8131321046
 51
299.9146739643
  0
LINE
  5
175
330
1F
100
AcDbEntity
  8
0
  6
Continuous
 62
     7
370
    25
100
AcDbLine
 10
148.4713152358
 20
155.3917396894
 30
0.0
 11
160.149999975
 21
155.1846658586
 31
0.0
  0
LINE
  5
176
330
1F
100
AcDbEntity
  8
0
  6
Continuous
 62
     7
370
    25
100
AcDbLine
 10
160.149999975
 20
155.1846658586
 30
0.0
 11
171.8286847643
 21
155.3917396894
 31
0.0
  0
ARC
  5
177
330
1F
100
AcDbEntity
  8
0
  6
Continuous
 62
     7
370
    25
100
AcDbCircle
 10
173.1176252463
 20
157.6217516044
 30
0.0
 40
2.575717513120436
100
AcDbArc
 50
239.9722110812
 51
276.2999823902
  0
LWPOLYLINE
  5
178
330
1F
100
AcDbEntity
  8
0
  6
Continuous
 62
     7
370
    25
100
AcDbPolyline
 90
        3
 70
   128
 43
0.0
 10
173.9393684194
 20
155.0853004319
 10
173.9106334575
 20
155.0815007254
 10
173.4002690463
 20
155.0615888772
  0
LINE
  5
179
330
1F
100
AcDbEntity
  8
0
  6
Continuous
 62
     7
370
    25
100
AcDbLine
 10
67.4000009255
 20
153.0000000205
 30
0.0
 11
199.8999991429
 21
153.0000000301
 31
0.0
  0
LINE
  5
17A
330
1F
100
AcDbEntity
  8
0
  6
Continuous
 62
     7
370
    25
100
AcDbLine
 10
67.4943340027
 20
153.0943340027
 30
0.0
 11
67.4000009255
 21
153.0000000205
 31
0.0
  0
LINE
  5
17B
330
1F
100
AcDbEntity
  8
0
  6
Continuous
 62
     7
370
    25
100
AcDbLine
 10
199.8056659973
 20
153.0943340027
 30
0.0
 11
199.8999991429
 21
153.0000000301
 31
0.0
  0
LINE
  5
17C
330
1F
100
AcDbEntity
  8
0
  6
Continuous
 62
     7
370
    25
100
AcDbLine
 10
67.4000049741
 20
181.5998719365
 30
0.0
 11
67.4000017116
 21
183.0000000199
 31
0.0
  0
LINE
  5
17D
330
1F
100
AcDbEntity
  8
0
  6
Continuous
 62
     7
370
    25
100
AcDbLine
 10
67.4943340027
 20
182.9056659973
 30
0.0
 11
67.4000017116
 21
183.0000000199
 31
0.0
  0
LINE
  5
17E
330
1F
100
AcDbEntity
  8
0
  6
Continuous
 62
     7
370
    25
100
AcDbLine
 10
67.4000009255
 20
153.0000000205
 30
0.0
 11
67.4000034361
 21
154.4000456526
 31
0.0
  0
LINE
  5
17F
330
1F
100
AcDbEntity
  8
0
  6
Continuous
 62
     7
370
    25
100
AcDbLine
 10
67.39999998
 20
181.5998719365
 30
0.0
 11
67.4000001092
 21
154.4000456526
 31
0.0
  0
LINE
  5
180
330
1F
100
AcDbEntity
  8
0
  6
Continuous
 62
     7
370
    25
100
AcDbLine
 10
199.8999989388
 20
183.0000000012
 30
0.0
 11
67.4000017116
 21
183.0000000199
 31
0.0
  0
LINE
  5
181
330
1F
100
AcDbEntity
  8
0
  6
Continuous
 62
     7
370
    25
100
AcDbLine
 10
199.8056659973
 20
182.9056659973
 30
0.0
 11
199.8999989388
 21
183.0000000012
 31
0.0
  0
LINE
  5
182
330
1F
100
AcDbEntity
  8
0
  6
Continuous
 62
     7
370
    25
100
AcDbLine
 10
199.8999964834
 20
181.5999498892
 30
0.0
 11
199.8999989388
 21
183.0000000012
 31
0.0
  0
LINE
  5
183
330
1F
100
AcDbEntity
  8
0
  6
Continuous
 62
     7
370
    25
100
AcDbLine
 10
199.8999999668
 20
154.4000490742
 30
0.0
 11
199.8999998828
 21
181.5999498892
 31
0.0
  0
LINE
  5
184
330
1F
100
AcDbEntity
  8
0
  6
Continuous
 62
     7
370
    25
100
AcDbLine
 10
199.8999991429
 20
153.0000000301
 30
0.0
 11
199.8999957524
 21
154.4000490742
 31
0.0
  0
LINE
  5
185
330
1F
100
AcDbEntity
  8
0
  6
Continuous
 62
     7
370
    25
100
AcDbLine
 10
171.8281964337
 20
180.607814114
 30
0.0
 11
171.7815496262
 21
180.4486972478
 31
0.0
  0
LWPOLYLINE
  5
186
330
1F
100
AcDbEntity
  8
0
  6
Continuous
 62
     7
370
    25
100
AcDbPolyline
 90
        5
 70
   128
 43
0.0
 10
173.4002713917
 20
180.9384093398
 10
173.4002524449
 20
180.8924099712
 10
173.4002356822
 20
180.8086402494
 10
173.400226421
 20
180.7278535459
 10
173.4002213414
 20
180.6464184637
  0
ARC
  5
187
330
1F
100
AcDbEntity
  8
0
  6
Continuous
 62
     7
370
    25
100
AcDbCircle
 10
173.178886118
 20
178.8595149541
 30
0.0
 40
1.800559200456204
100
AcDbArc
 50
82.9390094761
 51
126.3316064154
  0
LWPOLYLINE
  5
188
330
1F
100
AcDbEntity
  8
0
  6
Continuous
 62
     7
370
    25
100
AcDbPolyline
 90
        5
 70
   128
 43
0.0
 10
93.8997286393
 20
180.9384093398
 10
93.8997475647
 20
180.8924080903
 10
93.899764294
 20
180.8086364164
 10
93.8997735572
 20
180.7278505434
 10
93.8997786838
 20
180.6464184636
  0
ARC
  5
189
330
1F
100
AcDbEntity
  8
0
  6
Continuous
 62
     7
370
    25
100
AcDbCircle
 10
93.6786121181
 20
178.8602727337
 30
0.0
 40
1.799786436628493
100
AcDbArc
 50
82.9413726247
 51
126.3388711164
  0
LWPOLYLINE
  5
18A
330
1F
100
AcDbEntity
  8
0
  6
Continuous
 62
     7
370
    25
100
AcDbPolyline
 90
        3
 70
   128
 43
0.0
 10
118.7817665277
 20
180.4481536187
 10
118.7881377477
 20
180.5347632002
 10
118.8281970623
 20
180.6077582669
  0
LWPOLYLINE
  5
18B
330
1F
100
AcDbEntity
  8
0
  6
Continuous
 62
     7
370
    25
100
AcDbPolyline
 90
        5
 70
   128
 43
0.0
 10
120.3997286393
 20
180.9384093398
 10
120.3997475647
 20
180.8924080903
 10
120.399764294
 20
180.8086364164
 10
120.3997735572
 20
180.7278505434
 10
120.3997786838
 20
180.6464184636
  0
ARC
  5
18C
330
1F
100
AcDbEntity
  8
0
  6
Continuous
 62
     7
370
    25
100
AcDbCircle
 10
120.1786121181
 20
178.8602727337
 30
0.0
 40
1.799786436628678
100
AcDbArc
 50
82.9413726247
 51
126.3388711164
  0
LWPOLYLINE
  5
18D
330
1F
100
AcDbEntity
  8
0
  6
Continuous
 62
     7
370
    25
100
AcDbPolyline
 90
        3
 70
   128
 43
0.0
 10
145.2817665277
 20
180.4481536187
 10
145.2881377477
 20
180.5347632003
 10
145.3281970623
 20
180.6077582669
  0
LWPOLYLINE
  5
18E
330
1F
100
AcDbEntity
  8
0
  6
Continuous
 62
     7
370
    25
100
AcDbPolyline
 90
        5
 70
   128
 43
0.0
 10
146.8997286393
 20
180.9384093398
 10
146.8997475647
 20
180.8924080903
 10
146.899764294
 20
180.8086364164
 10
146.8997735572
 20
180.7278505434
 10
146.8997786838
 20
180.6464184636
  0
ARC
  5
18F
330
1F
100
AcDbEntity
  8
0
  6
Continuous
 62
     7
370
    25
100
AcDbCircle
 10
146.6786121181
 20
178.8602727337
 30
0.0
 40
1.799786436628655
100
AcDbArc
 50
82.9413726247
 51
126.3388711164
  0
LWPOLYLINE
  5
190
330
1F
100
AcDbEntity
  8
0
  6
Continuous
 62
     7
370
    25
100
AcDbPolyline
 90
        3
 70
   128
 43
0.0
 10
95.4718053685
 20
180.6077600696
 10
95.5139130198
 20
180.5348125796
 10
95.5184502677
 20
180.4483698635
  0
ARC
  5
191
330
1F
100
AcDbEntity
  8
0
  6
Continuous
 62
     7
370
    25
100
AcDbCircle
 10
94.133703861
 20
178.907726696
 30
0.0
 40
1.754357447045158
100
AcDbArc
 50
53.0667721963
 51
97.6626132961
  0
LWPOLYLINE
  5
192
330
1F
100
AcDbEntity
  8
0
  6
Continuous
 62
     7
370
    25
100
AcDbPolyline
 90
        3
 70
   128
 43
0.0
 10
148.4718063525
 20
180.6077591041
 10
148.5139132732
 20
180.5348123777
 10
148.5184502677
 20
180.4483698635
  0
ARC
  5
193
330
1F
100
AcDbEntity
  8
0
  6
Continuous
 62
     7
370
    25
100
AcDbCircle
 10
147.133703861
 20
178.907726696
 30
0.0
 40
1.75435744702947
100
AcDbArc
 50
53.0667721961
 51
97.6626132963
  0
LWPOLYLINE
  5
194
330
1F
100
AcDbEntity
  8
0
  6
Continuous
 62
     7
370
    25
100
AcDbPolyline
 90
        3
 70
   128
 43
0.0
 10
121.9718053685
 20
180.6077600696
 10
122.0139130198
 20
180.5348125796
 10
122.0184502677
 20
180.4483698635
  0
ARC
  5
195
330
1F
100
AcDbEntity
  8
0
  6
Continuous
 62
     7
370
    25
100
AcDbCircle
 10
120.633703861
 20
178.9077266961
 30
0.0
 40
1.754357446988972
100
AcDbArc
 50
53.0667721955
 51
97.6626132969
  0
LWPOLYLINE
  5
196
330
1F
100
AcDbEntity
  8
0
  6
Continuous
 62
     7
370
    25
100
AcDbPolyline
 90
        5
 70
   128
 43
0.0
 10
173.4002690463
 20
155.0615903878
 10
173.4002502609
 20
155.107171242
 10
173.4002336011
 20
155.1906093737
 10
173.4002243624
 20
155.2715794652
 10
173.4002192802
 20
155.3535813891
  0
ARC
  5
197
330
1F
100
AcDbEntity
  8
0
  6
Continuous
 62
     7
370
    25
100
AcDbCircle
 10
173.6213406838
 20
157.1399102008
 30
0.0
 40
1.799962582303878
100
AcDbArc
 50
262.9435154616
 51
306.3365461004
  0
LWPOLYLINE
  5
198
330
1F
100
AcDbEntity
  8
0
  6
Continuous
 62
     7
370
    25
100
AcDbPolyline
 90
        3
 70
   128
 43
0.0
 10
145.3286798196
 20
155.3917959911
 10
145.287188304
 20
155.4664050844
 10
145.2816659157
 20
155.5517477364
  0
ARC
  5
199
330
1F
100
AcDbEntity
  8
0
  6
Continuous
 62
     7
370
    25
100
AcDbCircle
 10
146.6783991916
 20
157.1389144823
 30
0.0
 40
1.79900639861919
100
AcDbArc
 50
233.6513374168
 51
277.0686013521
  0
LWPOLYLINE
  5
19A
330
1F
100
AcDbEntity
  8
0
  6
Continuous
 62
     7
370
    25
100
AcDbPolyline
 90
        5
 70
   128
 43
0.0
 10
146.8997309224
 20
155.0615903878
 10
146.8997498327
 20
155.1075900984
 10
146.8997665167
 20
155.1913606713
 10
146.8997756977
 20
155.2721472668
 10
146.8997806943
 20
155.3535813892
  0
LWPOLYLINE
  5
19B
330
1F
100
AcDbEntity
  8
0
  6
Continuous
 62
     7
370
    25
100
AcDbPolyline
 90
        3
 70
   128
 43
0.0
 10
118.8286798196
 20
155.3917959911
 10
118.787188304
 20
155.4664050844
 10
118.7816659157
 20
155.5517477364
  0
ARC
  5
19C
330
1F
100
AcDbEntity
  8
0
  6
Continuous
 62
     7
370
    25
100
AcDbCircle
 10
120.1783991916
 20
157.1389144823
 30
0.0
 40
1.799006398613096
100
AcDbArc
 50
233.6513374167
 51
277.0686013522
  0
LWPOLYLINE
  5
19D
330
1F
100
AcDbEntity
  8
0
  6
Continuous
 62
     7
370
    25
100
AcDbPolyline
 90
        5
 70
   128
 43
0.0
 10
120.3997309224
 20
155.0615903878
 10
120.3997498327
 20
155.1075900984
 10
120.3997665167
 20
155.1913606713
 10
120.3997756977
 20
155.2721472668
 10
120.3997806943
 20
155.3535813892
  0
ARC
  5
19E
330
1F
100
AcDbEntity
  8
0
  6
Continuous
 62
     7
370
    25
100
AcDbCircle
 10
93.6783991916
 20
157.1389144823
 30
0.0
 40
1.799006398575793
100
AcDbArc
 50
233.6513374162
 51
277.0686013527
  0
LWPOLYLINE
  5
19F
330
1F
100
AcDbEntity
  8
0
  6
Continuous
 62
     7
370
    25
100
AcDbPolyline
 90
        5
 70
   128
 43
0.0
 10
93.8997309224
 20
155.0615903878
 10
93.8997498327
 20
155.1075900984
 10
93.8997665167
 20
155.1913606713
 10
93.8997756977
 20
155.2721472668
 10
93.8997806943
 20
155.3535813892
  0
ARC
  5
1A0
330
1F
100
AcDbEntity
  8
0
  6
Continuous
 62
     7
370
    25
100
AcDbCircle
 10
173.6339109482
 20
178.9082117677
 30
0.0
 40
1.753845303659286
100
AcDbArc
 50
53.0626584909
 51
97.6570991088
  0
LWPOLYLINE
  5
1A1
330
1F
100
AcDbEntity
  8
0
  6
Continuous
 62
     7
370
    25
100
AcDbPolyline
 90
        3
 70
   128
 43
0.0
 10
148.4713152365
 20
155.3917433421
 10
148.4977936231
 20
155.4616122815
 10
148.505366077
 20
155.5456387233
  0
ARC
  5
1A2
330
1F
100
AcDbEntity
  8
0
  6
Continuous
 62
     7
370
    25
100
AcDbCircle
 10
147.1211893071
 20
157.1402013059
 30
0.0
 40
1.80028678314381
100
AcDbArc
 50
262.9355820278
 51
306.3349372948
  0
LWPOLYLINE
  5
1A3
330
1F
100
AcDbEntity
  8
0
  6
Continuous
 62
     7
370
    25
100
AcDbPolyline
 90
        3
 70
   128
 43
0.0
 10
95.4713152365
 20
155.3917433421
 10
95.4977936231
 20
155.4616122815
 10
95.505366077
 20
155.5456387233
  0
ARC
  5
1A4
330
1F
100
AcDbEntity
  8
0
  6
Continuous
 62
     7
370
    25
100
AcDbCircle
 10
94.1211893071
 20
157.1402013059
 30
0.0
 40
1.800286783143511
100
AcDbArc
 50
262.9355820278
 51
306.3349372948
  0
LWPOLYLINE
  5
1A5
330
1F
100
AcDbEntity
  8
0
  6
Continuous
 62
     7
370
    25
100
AcDbPolyline
 90
        3
 70
   128
 43
0.0
 10
121.9713152365
 20
155.3917433421
 10
121.9977936231
 20
155.4616122815
 10
122.005366077
 20
155.5456387233
  0
ARC
  5
1A6
330
1F
100
AcDbEntity
  8
0
  6
Continuous
 62
     7
370
    25
100
AcDbCircle
 10
120.6211893071
 20
157.1402013059
 30
0.0
 40
1.800286783143182
100
AcDbArc
 50
262.9355820278
 51
306.3349372948
  0
ARC
  5
1A7
330
1F
100
AcDbEntity
  8
0
  6
Continuous
 62
     7
370
    25
100
AcDbCircle
 10
173.1663070727
 20
157.092320056
 30
0.0
 40
1.754402198309147
100
AcDbArc
 50
233.0674919015
 51
277.6619892809
  0
LINE
  5
1A8
330
1F
100
AcDbEntity
  8
0
  6
Continuous
 62
     7
370
    25
100
AcDbLine
 10
171.794633923
 20
155.5456387233
 30
0.0
 11
171.8286847635
 21
155.3917433421
 31
0.0
  0
LINE
  5
1A9
330
1F
100
AcDbEntity
  8
0
  6
Continuous
 62
     7
370
    25
100
AcDbLine
 10
92.612125108
 20
155.8000185971
 30
0.0
 11
92.6121247378
 21
180.19998605
 31
0.0
  0
LINE
  5
1AA
330
1F
100
AcDbEntity
  8
0
  6
Continuous
 62
     7
370
    25
100
AcDbLine
 10
95.187874892
 20
155.8000185926
 30
0.0
 11
95.1878752622
 21
180.1999860468
 31
0.0
  0
LINE
  5
1AB
330
1F
100
AcDbEntity
  8
0
  6
Continuous
 62
     7
370
    25
100
AcDbLine
 10
145.612125108
 20
155.8000185971
 30
0.0
 11
145.6121247378
 21
180.19998605
 31
0.0
  0
LINE
  5
1AC
330
1F
100
AcDbEntity
  8
0
  6
Continuous
 62
     7
370
    25
100
AcDbLine
 10
148.187874892
 20
155.8000185926
 30
0.0
 11
148.1878752622
 21
180.1999860468
 31
0.0
  0
LINE
  5
1AD
330
1F
100
AcDbEntity
  8
0
  6
Continuous
 62
     7
370
    25
100
AcDbLine
 10
119.112125108
 20
155.8000185971
 30
0.0
 11
119.1121247378
 21
180.19998605
 31
0.0
  0
LINE
  5
1AE
330
1F
100
AcDbEntity
  8
0
  6
Continuous
 62
     7
370
    25
100
AcDbLine
 10
121.687874892
 20
155.8000185926
 30
0.0
 11
121.6878752622
 21
180.1999860468
 31
0.0
  0
LINE
  5
1AF
330
1F
100
AcDbEntity
  8
0
  6
Continuous
 62
     7
370
    25
100
AcDbLine
 10
172.112125108
 20
155.8000185972
 30
0.0
 11
172.1121247378
 21
180.1999860483
 31
0.0
  0
LINE
  5
1B0
330
1F
100
AcDbEntity
  8
0
  6
Continuous
 62
     7
370
    25
100
AcDbLine
 10
174.687874892
 20
155.8000185948
 30
0.0
 11
174.6878752622
 21
180.1999860551
 31
0.0
  0
LWPOLYLINE
  5
1B1
330
1F
100
AcDbEntity
  8
0
  6
Continuous
 62
     7
370
    25
100
AcDbPolyline
 90
        8
 70
   128
 43
0.0
 10
160.15
 20
160.95
 10
160.1497286086
 20
159.989560349
 10
160.1495327665
 20
159.0974380165
 10
160.1496392466
 20
158.2959025034
 10
160.1500995779
 20
157.5900140641
 10
160.1506970265
 20
156.7419567837
 10
160.1505675186
 20
155.9307746307
 10
160.1499999748
 20
155.1848401129
  0
LINE
  5
1B2
330
1F
100
AcDbEntity
  8
0
  6
Continuous
 62
     7
370
    25
100
AcDbLine
 10
160.0449840522
 20
160.9507821958
 30
0.0
 11
160.15
 21
160.95
 31
0.0
  0
LWPOLYLINE
  5
1B3
330
1F
100
AcDbEntity
  8
0
  6
Continuous
 62
     7
370
    25
100
AcDbPolyline
 90
        8
 70
   128
 43
0.0
 10
107.15
 20
160.95
 10
107.1497357086
 20
159.9899673217
 10
107.1495431435
 20
159.0979719906
 10
107.1496504039
 20
158.2964137474
 10
107.1501098974
 20
157.5904391228
 10
107.150704637
 20
156.7422590731
 10
107.1505704953
 20
155.9309348129
 10
107.1499964075
 20
155.1848402919
  0
LINE
  5
1B4
330
1F
100
AcDbEntity
  8
0
  6
Continuous
 62
     7
370
    25
100
AcDbLine
 10
107.0449840522
 20
160.9507821958
 30
0.0
 11
107.15
 21
160.95
 31
0.0
  0
LWPOLYLINE
  5
1B5
330
1F
100
AcDbEntity
  8
0
  6
Continuous
 62
     7
370
    25
100
AcDbPolyline
 90
        8
 70
   128
 43
0.0
 10
133.65
 20
160.95
 10
133.6497357087
 20
159.9899673355
 10
133.6495431436
 20
159.0979720087
 10
133.649650404
 20
158.2964137647
 10
133.6501098975
 20
157.5904391372
 10
133.6507046371
 20
156.7422590833
 10
133.6505704953
 20
155.9309348183
 10
133.6499964075
 20
155.1848402919
  0
LINE
  5
1B6
330
1F
100
AcDbEntity
  8
0
  6
Continuous
 62
     7
370
    25
100
AcDbLine
 10
133.5449840522
 20
160.9507821958
 30
0.0
 11
133.65
 21
160.95
 31
0.0
  0
LINE
  5
1B7
330
1F
100
AcDbEntity
  8
0
  6
Continuous
 62
     7
370
    25
100
AcDbLine
 10
133.65
 20
160.95
 30
0.0
 11
133.7550159478
 21
160.9507821958
 31
0.0
  0
LINE
  5
1B8
330
1F
100
AcDbEntity
  8
0
  6
Continuous
 62
     7
370
    25
100
AcDbLine
 10
107.15
 20
160.95
 30
0.0
 11
107.2550159478
 21
160.9507821958
 31
0.0
  0
LINE
  5
1B9
330
1F
100
AcDbEntity
  8
0
  6
Continuous
 62
     7
370
    25
100
AcDbLine
 10
160.15
 20
160.95
 30
0.0
 11
160.2550159478
 21
160.9507821958
 31
0.0
  0
LWPOLYLINE
  5
1BA
330
1F
100
AcDbEntity
  8
0
  6
Continuous
 62
     7
370
    25
100
AcDbPolyline
 90
        8
 70
   128
 43
0.0
 10
107.15
 20
175.05
 10
107.1502616768
 20
176.0114488365
 10
107.1504478971
 20
176.9041455799
 10
107.1503333235
 20
177.7059617027
 10
107.1498677809
 20
178.4119699182
 10
107.1492708103
 20
179.2602256869
 10
107.1494088337
 20
180.0716065221
 10
107.1499895026
 20
180.8174032566
  0
LINE
  5
1BB
330
1F
100
AcDbEntity
  8
0
  6
Continuous
 62
     7
370
    25
100
AcDbLine
 10
107.2551265239
 20
175.049216156
 30
0.0
 11
107.15
 21
175.05
 31
0.0
  0
LWPOLYLINE
  5
1BC
330
1F
100
AcDbEntity
  8
0
  6
Continuous
 62
     7
370
    25
100
AcDbPolyline
 90
        8
 70
   128
 43
0.0
 10
133.65
 20
175.05
 10
133.6502616767
 20
176.0114488207
 10
133.650447897
 20
176.9041455592
 10
133.6503333234
 20
177.7059616829
 10
133.6498677809
 20
178.4119699017
 10
133.6492708103
 20
179.2602256752
 10
133.6494088338
 20
180.0716065159
 10
133.6499895026
 20
180.8174032566
  0
LINE
  5
1BD
330
1F
100
AcDbEntity
  8
0
  6
Continuous
 62
     7
370
    25
100
AcDbLine
 10
133.7551265239
 20
175.049216156
 30
0.0
 11
133.65
 21
175.05
 31
0.0
  0
LWPOLYLINE
  5
1BE
330
1F
100
AcDbEntity
  8
0
  6
Continuous
 62
     7
370
    25
100
AcDbPolyline
 90
        8
 70
   128
 43
0.0
 10
160.15
 20
175.05
 10
160.1502674768
 20
176.0116686409
 10
160.1504573888
 20
176.9044338163
 10
160.1503451161
 20
177.7062374737
 10
160.1498809595
 20
178.4121990449
 10
160.149284912
 20
179.260388395
 10
160.1494227438
 20
180.0716923153
 10
160.1500021159
 20
180.8174025884
  0
LINE
  5
1BF
330
1F
100
AcDbEntity
  8
0
  6
Continuous
 62
     7
370
    25
100
AcDbLine
 10
160.2551265239
 20
175.049216156
 30
0.0
 11
160.15
 21
175.05
 31
0.0
  0
LINE
  5
1C0
330
1F
100
AcDbEntity
  8
0
  6
Continuous
 62
     7
370
    25
100
AcDbLine
 10
107.15
 20
175.05
 30
0.0
 11
107.0448734761
 21
175.049216156
 31
0.0
  0
LINE
  5
1C1
330
1F
100
AcDbEntity
  8
0
  6
Continuous
 62
     7
370
    25
100
AcDbLine
 10
133.65
 20
175.05
 30
0.0
 11
133.5448734761
 21
175.049216156
 31
0.0
  0
LINE
  5
1C2
330
1F
100
AcDbEntity
  8
0
  6
Continuous
 62
     7
370
    25
100
AcDbLine
 10
160.15
 20
175.05
 30
0.0
 11
160.0448734761
 21
175.049216156
 31
0.0
  0
LINE
  5
1C3
330
1F
100
AcDbEntity
  8
0
  6
Continuous
 62
     7
370
    25
100
AcDbLine
 10
168.9537182518
 20
172.4346596228
 30
0.0
 11
168.9537182516
 21
163.5653401353
 31
0.0
  0
LINE
  5
1C4
330
1F
100
AcDbEntity
  8
0
  6
Continuous
 62
     7
370
    25
100
AcDbLine
 10
142.4537182518
 20
172.4346596228
 30
0.0
 11
142.4537182516
 21
163.5653401353
 31
0.0
  0
LINE
  5
1C5
330
1F
100
AcDbEntity
  8
0
  6
Continuous
 62
     7
370
    25
100
AcDbLine
 10
115.9537182518
 20
172.4346596228
 30
0.0
 11
115.9537182516
 21
163.5653401353
 31
0.0
  0
LINE
  5
1C6
330
1F
100
AcDbEntity
  8
0
  6
Continuous
 62
     7
370
    25
100
AcDbLine
 10
89.4537182518
 20
172.4346596228
 30
0.0
 11
89.4537182516
 21
163.5653401353
 31
0.0
  0
LINE
  5
1C7
330
1F
100
AcDbEntity
  8
0
  6
Continuous
 62
     7
370
    25
100
AcDbLine
 10
177.8462817483
 20
172.4346596228
 30
0.0
 11
177.8462817484
 21
163.5653401353
 31
0.0
  0
LINE
  5
1C8
330
1F
100
AcDbEntity
  8
0
  6
Continuous
 62
     7
370
    25
100
AcDbLine
 10
124.8462817483
 20
172.4346596228
 30
0.0
 11
124.8462817484
 21
163.5653401353
 31
0.0
  0
LINE
  5
1C9
330
1F
100
AcDbEntity
  8
0
  6
Continuous
 62
     7
370
    25
100
AcDbLine
 10
98.3462817483
 20
172.4346596228
 30
0.0
 11
98.3462817484
 21
163.5653401353
 31
0.0
  0
LINE
  5
1CA
330
1F
100
AcDbEntity
  8
0
  6
Continuous
 62
     7
370
    25
100
AcDbLine
 10
151.3462817483
 20
172.4346596228
 30
0.0
 11
151.3462817484
 21
163.5653401353
 31
0.0
  0
LINE
  5
1CB
330
1F
100
AcDbEntity
  8
0
  6
Continuous
 62
     7
370
    25
100
AcDbLine
 10
167.1989689521
 20
167.8794317101
 30
0.0
 11
167.2
 21
168.0
 31
0.0
  0
LINE
  5
1CC
330
1F
100
AcDbEntity
  8
0
  6
Continuous
 62
     7
370
    25
100
AcDbLine
 10
167.2
 20
168.0
 30
0.0
 11
167.198969178
 21
168.1205550835
 31
0.0
  0
LINE
  5
1CD
330
1F
100
AcDbEntity
  8
0
  6
Continuous
 62
     7
370
    25
100
AcDbLine
 10
140.6999889387
 20
168.0000000001
 30
0.0
 11
140.698999221
 21
167.8794299995
 31
0.0
  0
LINE
  5
1CE
330
1F
100
AcDbEntity
  8
0
  6
Continuous
 62
     7
370
    25
100
AcDbLine
 10
140.69899575
 20
168.1205542725
 30
0.0
 11
140.6999889387
 21
168.0000000001
 31
0.0
  0
LINE
  5
1CF
330
1F
100
AcDbEntity
  8
0
  6
Continuous
 62
     7
370
    25
100
AcDbLine
 10
114.1999889387
 20
168.0000000001
 30
0.0
 11
114.198999221
 21
167.8794299995
 31
0.0
  0
LINE
  5
1D0
330
1F
100
AcDbEntity
  8
0
  6
Continuous
 62
     7
370
    25
100
AcDbLine
 10
114.19899575
 20
168.1205542725
 30
0.0
 11
114.1999889387
 21
168.0000000001
 31
0.0
  0
LINE
  5
1D1
330
1F
100
AcDbEntity
  8
0
  6
Continuous
 62
     7
370
    25
100
AcDbLine
 10
87.6999889387
 20
168.0000000001
 30
0.0
 11
87.698999221
 21
167.8794299995
 31
0.0
  0
LINE
  5
1D2
330
1F
100
AcDbEntity
  8
0
  6
Continuous
 62
     7
370
    25
100
AcDbLine
 10
87.69899575
 20
168.1205542725
 30
0.0
 11
87.6999889387
 21
168.0000000001
 31
0.0
  0
LINE
  5
1D3
330
1F
100
AcDbEntity
  8
0
  6
Continuous
 62
     7
370
    25
100
AcDbLine
 10
126.600010722
 20
167.9999999998
 30
0.0
 11
126.6010039232
 21
168.1205540493
 31
0.0
  0
LINE
  5
1D4
330
1F
100
AcDbEntity
  8
0
  6
Continuous
 62
     7
370
    25
100
AcDbLine
 10
126.6010016825
 20
167.8794317806
 30
0.0
 11
126.600010722
 21
167.9999999998
 31
0.0
  0
LINE
  5
1D5
330
1F
100
AcDbEntity
  8
0
  6
Continuous
 62
     7
370
    25
100
AcDbLine
 10
100.100010722
 20
167.9999999998
 30
0.0
 11
100.1010039232
 21
168.1205540493
 31
0.0
  0
LINE
  5
1D6
330
1F
100
AcDbEntity
  8
0
  6
Continuous
 62
     7
370
    25
100
AcDbLine
 10
100.1010016825
 20
167.8794317806
 30
0.0
 11
100.100010722
 21
167.9999999998
 31
0.0
  0
LINE
  5
1D7
330
1F
100
AcDbEntity
  8
0
  6
Continuous
 62
     7
370
    25
100
AcDbLine
 10
153.100010722
 20
167.9999999998
 30
0.0
 11
153.1010039232
 21
168.1205540493
 31
0.0
  0
LINE
  5
1D8
330
1F
100
AcDbEntity
  8
0
  6
Continuous
 62
     7
370
    25
100
AcDbLine
 10
153.1010016825
 20
167.8794317806
 30
0.0
 11
153.100010722
 21
167.9999999998
 31
0.0
  0
LINE
  5
1D9
330
1F
100
AcDbEntity
  8
0
  6
Continuous
 62
     7
370
    25
100
AcDbLine
 10
179.6000138692
 20
167.9999981387
 30
0.0
 11
179.6010044046
 21
168.1205540255
 31
0.0
  0
LINE
  5
1DA
330
1F
100
AcDbEntity
  8
0
  6
Continuous
 62
     7
370
    25
100
AcDbLine
 10
179.6010016623
 20
167.8794307529
 30
0.0
 11
179.6000138692
 21
167.9999981387
 31
0.0
  0
ARC
  5
1DB
330
1F
100
AcDbEntity
  8
0
  6
Continuous
 62
     7
370
    25
100
AcDbCircle
 10
80.65
 20
168.0
 30
0.0
 40
6.850000000000023
100
AcDbArc
 50
90.0
 51
270.0
  0
LINE
  5
1DC
330
1F
100
AcDbEntity
  8
0
  6
Continuous
 62
     7
370
    25
100
AcDbLine
 10
80.65
 20
174.85
 30
0.0
 11
80.65
 21
174.8342856537
 31
0.0
  0
ARC
  5
1DD
330
1F
100
AcDbEntity
  8
0
  6
Continuous
 62
     7
370
    25
100
AcDbCircle
 10
80.65
 20
168.0
 30
0.0
 40
6.834285653727989
100
AcDbArc
 50
90.0
 51
270.0
  0
LINE
  5
1DE
330
1F
100
AcDbEntity
  8
0
  6
Continuous
 62
     7
370
    25
100
AcDbLine
 10
80.65
 20
161.15
 30
0.0
 11
80.65
 21
161.1657143463
 31
0.0
  0
ARC
  5
1DF
330
1F
100
AcDbEntity
  8
0
  6
Continuous
 62
     7
370
    25
100
AcDbCircle
 10
80.65
 20
168.0
 30
0.0
 40
6.850000000000023
100
AcDbArc
 50
270.0
 51
90.0
  0
ARC
  5
1E0
330
1F
100
AcDbEntity
  8
0
  6
Continuous
 62
     7
370
    25
100
AcDbCircle
 10
80.65
 20
168.0
 30
0.0
 40
6.834285653727989
100
AcDbArc
 50
270.0
 51
90.0
  0
ARC
  5
1E1
330
1F
100
AcDbEntity
  8
0
  6
Continuous
 62
     7
370
    25
100
AcDbCircle
 10
107.15
 20
168.0
 30
0.0
 40
6.834285653728017
100
AcDbArc
 50
270.0
 51
90.0
  0
ARC
  5
1E2
330
1F
100
AcDbEntity
  8
0
  6
Continuous
 62
     7
370
    25
100
AcDbCircle
 10
107.15
 20
168.0
 30
0.0
 40
6.834285653728017
100
AcDbArc
 50
90.0
 51
270.0
  0
ARC
  5
1E3
330
1F
100
AcDbEntity
  8
0
  6
Continuous
 62
     7
370
    25
100
AcDbCircle
 10
107.15
 20
168.0
 30
0.0
 40
6.849999999999994
100
AcDbArc
 50
90.0
 51
270.0
  0
LINE
  5
1E4
330
1F
100
AcDbEntity
  8
0
  6
Continuous
 62
     7
370
    25
100
AcDbLine
 10
107.15
 20
174.85
 30
0.0
 11
107.15
 21
174.8342856537
 31
0.0
  0
LINE
  5
1E5
330
1F
100
AcDbEntity
  8
0
  6
Continuous
 62
     7
370
    25
100
AcDbLine
 10
107.15
 20
161.15
 30
0.0
 11
107.15
 21
161.1657143463
 31
0.0
  0
ARC
  5
1E6
330
1F
100
AcDbEntity
  8
0
  6
Continuous
 62
     7
370
    25
100
AcDbCircle
 10
107.15
 20
168.0
 30
0.0
 40
6.849999999999994
100
AcDbArc
 50
270.0
 51
90.0
  0
ARC
  5
1E7
330
1F
100
AcDbEntity
  8
0
  6
Continuous
 62
     7
370
    25
100
AcDbCircle
 10
133.65
 20
168.0
 30
0.0
 40
6.850000000000023
100
AcDbArc
 50
270.0
 51
90.0
  0
LINE
  5
1E8
330
1F
100
AcDbEntity
  8
0
  6
Continuous
 62
     7
370
    25
100
AcDbLine
 10
133.65
 20
161.15
 30
0.0
 11
133.65
 21
161.1657143463
 31
0.0
  0
ARC
  5
1E9
330
1F
100
AcDbEntity
  8
0
  6
Continuous
 62
     7
370
    25
100
AcDbCircle
 10
133.65
 20
168.0
 30
0.0
 40
6.834285653728017
100
AcDbArc
 50
270.0
 51
90.0
  0
LINE
  5
1EA
330
1F
100
AcDbEntity
  8
0
  6
Continuous
 62
     7
370
    25
100
AcDbLine
 10
133.65
 20
174.85
 30
0.0
 11
133.65
 21
174.8342856537
 31
0.0
  0
ARC
  5
1EB
330
1F
100
AcDbEntity
  8
0
  6
Continuous
 62
     7
370
    25
100
AcDbCircle
 10
133.65
 20
168.0
 30
0.0
 40
6.850000000000023
100
AcDbArc
 50
90.0
 51
270.0
  0
ARC
  5
1EC
330
1F
100
AcDbEntity
  8
0
  6
Continuous
 62
     7
370
    25
100
AcDbCircle
 10
133.65
 20
168.0
 30
0.0
 40
6.834285653728017
100
AcDbArc
 50
90.0
 51
270.0
  0
ARC
  5
1ED
330
1F
100
AcDbEntity
  8
0
  6
Continuous
 62
     7
370
    25
100
AcDbCircle
 10
160.15
 20
168.0
 30
0.0
 40
6.834285653728017
100
AcDbArc
 50
270.0
 51
90.0
  0
ARC
  5
1EE
330
1F
100
AcDbEntity
  8
0
  6
Continuous
 62
     7
370
    25
100
AcDbCircle
 10
160.15
 20
168.0
 30
0.0
 40
6.834285653728017
100
AcDbArc
 50
90.0
 51
270.0
  0
ARC
  5
1EF
330
1F
100
AcDbEntity
  8
0
  6
Continuous
 62
     7
370
    25
100
AcDbCircle
 10
186.65
 20
168.0
 30
0.0
 40
6.834285653728017
100
AcDbArc
 50
270.0
 51
90.0
  0
ARC
  5
1F0
330
1F
100
AcDbEntity
  8
0
  6
Continuous
 62
     7
370
    25
100
AcDbCircle
 10
186.65
 20
168.0
 30
0.0
 40
6.834285653728017
100
AcDbArc
 50
90.0
 51
270.0
  0
ARC
  5
1F1
330
1F
100
AcDbEntity
  8
0
  6
Continuous
 62
     7
370
    25
100
AcDbCircle
 10
160.15
 20
168.0
 30
0.0
 40
6.849999999999994
100
AcDbArc
 50
90.0
 51
270.0
  0
LINE
  5
1F2
330
1F
100
AcDbEntity
  8
0
  6
Continuous
 62
     7
370
    25
100
AcDbLine
 10
160.15
 20
174.85
 30
0.0
 11
160.15
 21
174.8342856537
 31
0.0
  0
LINE
  5
1F3
330
1F
100
AcDbEntity
  8
0
  6
Continuous
 62
     7
370
    25
100
AcDbLine
 10
160.15
 20
161.15
 30
0.0
 11
160.15
 21
161.1657143463
 31
0.0
  0
ARC
  5
1F4
330
1F
100
AcDbEntity
  8
0
  6
Continuous
 62
     7
370
    25
100
AcDbCircle
 10
160.15
 20
168.0
 30
0.0
 40
6.849999999999994
100
AcDbArc
 50
270.0
 51
90.0
  0
ARC
  5
1F5
330
1F
100
AcDbEntity
  8
0
  6
Continuous
 62
     7
370
    25
100
AcDbCircle
 10
186.65
 20
168.0
 30
0.0
 40
6.849999999999994
100
AcDbArc
 50
90.0
 51
270.0
  0
LINE
  5
1F6
330
1F
100
AcDbEntity
  8
0
  6
Continuous
 62
     7
370
    25
100
AcDbLine
 10
186.65
 20
174.85
 30
0.0
 11
186.65
 21
174.8342856537
 31
0.0
  0
LINE
  5
1F7
330
1F
100
AcDbEntity
  8
0
  6
Continuous
 62
     7
370
    25
100
AcDbLine
 10
186.65
 20
161.15
 30
0.0
 11
186.65
 21
161.1657143463
 31
0.0
  0
ARC
  5
1F8
330
1F
100
AcDbEntity
  8
0
  6
Continuous
 62
     7
370
    25
100
AcDbCircle
 10
186.65
 20
168.0
 30
0.0
 40
6.849999999999994
100
AcDbArc
 50
270.0
 51
90.0
  0
LINE
  5
1F9
330
1F
100
AcDbEntity
  8
0
  6
Continuous
 62
     7
370
    25
100
AcDbLine
 10
200.6503045865
 20
184.0
 30
0.0
 11
199.6503045877
 21
183.0000000012
 31
0.0
  0
LINE
  5
1FA
330
1F
100
AcDbEntity
  8
0
  6
Continuous
 62
     7
370
    25
100
AcDbLine
 10
67.6496953936
 20
183.0000000199
 30
0.0
 11
66.6496954135
 21
184.0
 31
0.0
  0
LINE
  5
1FB
330
1F
100
AcDbEntity
  8
0
  6
Continuous
 62
     7
370
    25
100
AcDbLine
 10
67.3909060342
 20
153.7406014477
 30
0.0
 11
67.4000020844
 21
153.6462878267
 31
0.0
  0
LINE
  5
1FC
330
1F
100
AcDbEntity
  8
0
  6
Continuous
 62
     7
370
    25
100
AcDbLine
 10
66.6496954135
 20
152.0
 30
0.0
 11
67.649695434
 21
153.0000000205
 31
0.0
  0
LINE
  5
1FD
330
1F
100
AcDbEntity
  8
0
  6
Continuous
 62
     7
370
    25
100
AcDbLine
 10
199.6503045564
 20
153.0000000301
 30
0.0
 11
200.6503045865
 21
152.0
 31
0.0
  0
LINE
  5
1FE
330
1F
100
AcDbEntity
  8
0
  6
Continuous
 62
     7
370
    25
100
AcDbLine
 10
199.9090939658
 20
182.2593985523
 30
0.0
 11
199.8999978053
 21
182.3537127433
 31
0.0
  0
LINE
  5
1FF
330
1F
100
AcDbEntity
  8
0
  6
Continuous
 62
     7
370
    25
100
AcDbLine
 10
199.8999975778
 20
153.6462860802
 30
0.0
 11
199.9090939658
 21
153.7406014477
 31
0.0
  0
LINE
  5
200
330
1F
100
AcDbEntity
  8
0
  6
Continuous
 62
     7
370
    25
100
AcDbLine
 10
67.4000032175
 20
182.3537180314
 30
0.0
 11
67.3909060342
 21
182.2593985523
 31
0.0
  0
ARC
  5
201
330
1F
100
AcDbEntity
  8
0
  6
Continuous
 62
     7
370
    25
100
AcDbCircle
 10
173.9828532826
 20
179.1739188503
 30
0.0
 40
1.741968263331038
100
AcDbArc
 50
55.4293028754
 51
91.4766327201
  0
ARC
  5
202
330
1F
100
AcDbEntity
  8
0
  6
Continuous
 62
     7
370
    25
100
AcDbCircle
 10
172.8144103357
 20
179.1785968767
 30
0.0
 40
1.73645943410783
100
AcDbArc
 50
88.5238692719
 51
124.6070660109
  0
ARC
  5
203
330
1F
100
AcDbEntity
  8
0
  6
Continuous
 62
     7
370
    25
100
AcDbCircle
 10
147.5093553755
 20
179.250922248
 30
0.0
 40
1.663573917902829
100
AcDbArc
 50
54.6517875671
 51
91.5361291159
  0
ARC
  5
204
330
1F
100
AcDbEntity
  8
0
  6
Continuous
 62
     7
370
    25
100
AcDbCircle
 10
146.2904616603
 20
179.2513347433
 30
0.0
 40
1.663128958472516
100
AcDbArc
 50
88.4686613399
 51
125.3512134131
  0
ARC
  5
205
330
1F
100
AcDbEntity
  8
0
  6
Continuous
 62
     7
370
    25
100
AcDbCircle
 10
121.009343415
 20
179.2508911591
 30
0.0
 40
1.663606409803855
100
AcDbArc
 50
54.6521178257
 51
91.5361852427
  0
ARC
  5
206
330
1F
100
AcDbEntity
  8
0
  6
Continuous
 62
     7
370
    25
100
AcDbCircle
 10
119.7904616603
 20
179.2513347433
 30
0.0
 40
1.663128958466506
100
AcDbArc
 50
88.46866134
 51
125.3512134131
  0
ARC
  5
207
330
1F
100
AcDbEntity
  8
0
  6
Continuous
 62
     7
370
    25
100
AcDbCircle
 10
94.509343415
 20
179.2508911591
 30
0.0
 40
1.663606409803941
100
AcDbArc
 50
54.6521178257
 51
91.5361852427
  0
ARC
  5
208
330
1F
100
AcDbEntity
  8
0
  6
Continuous
 62
     7
370
    25
100
AcDbCircle
 10
93.2900588498
 20
179.2535603068
 30
0.0
 40
1.660916848951275
100
AcDbArc
 50
88.4521955967
 51
125.3842364491
  0
ARC
  5
209
330
1F
100
AcDbEntity
  8
0
  6
Continuous
 62
     7
370
    25
100
AcDbCircle
 10
93.297583869
 20
156.7678758695
 30
0.0
 40
1.683011369848533
100
AcDbArc
 50
234.8515639327
 51
271.5194045128
  0
ARC
  5
20A
330
1F
100
AcDbEntity
  8
0
  6
Continuous
 62
     7
370
    25
100
AcDbCircle
 10
119.797583869
 20
156.7678758695
 30
0.0
 40
1.683011369839921
100
AcDbArc
 50
234.8515639327
 51
271.5194045126
  0
ARC
  5
20B
330
1F
100
AcDbEntity
  8
0
  6
Continuous
 62
     7
370
    25
100
AcDbCircle
 10
146.297583869
 20
156.7678758695
 30
0.0
 40
1.683011369849716
100
AcDbArc
 50
234.8515639327
 51
271.5194045128
  0
ARC
  5
20C
330
1F
100
AcDbEntity
  8
0
  6
Continuous
 62
     7
370
    25
100
AcDbCircle
 10
173.9844235708
 20
156.8243734352
 30
0.0
 40
1.739656540089633
100
AcDbArc
 50
268.5159376946
 51
304.5617858232
  0
ARC
  5
20D
330
1F
100
AcDbEntity
  8
0
  6
Continuous
 62
     7
370
    25
100
AcDbCircle
 10
60.3106720695
 20
317.0497367419
 30
0.0
 40
0.4990479766296353
100
AcDbArc
 50
185.3283527613
 51
259.7994959849
  0
LINE
  5
20E
330
1F
100
AcDbEntity
  8
0
  6
Continuous
 62
     7
370
    25
100
AcDbLine
 10
60.313065653
 20
316.5508259352
 30
0.0
 11
60.2348014594
 21
316.5584638878
 31
0.0
  0
LINE
  5
20F
330
1F
100
AcDbEntity
  8
0
  6
Continuous
 62
     7
370
    25
100
AcDbLine
 10
60.1857235072
 20
316.5678224815
 30
0.0
 11
60.2641344485
 21
316.5527689686
 31
0.0
  0
LWPOLYLINE
  5
210
330
1F
100
AcDbEntity
  8
0
  6
Continuous
 62
     7
370
    25
100
AcDbPolyline
 90
        3
 70
   128
 43
0.0
 10
63.5475072627
 20
318.8941883754
 10
63.437472521
 20
318.7979044115
 10
63.4336251167
 20
318.7691104714
  0
ARC
  5
211
330
1F
100
AcDbEntity
  8
0
  6
Continuous
 62
     7
370
    25
100
AcDbCircle
 10
204.1840314653
 20
319.2731386358
 30
0.0
 40
0.5743073859970773
100
AcDbArc
 50
221.2875751507
 51
243.3487962139
  0
LWPOLYLINE
  5
212
330
1F
100
AcDbEntity
  8
0
  6
Continuous
 62
     7
370
    25
100
AcDbPolyline
 90
        3
 70
   128
 43
0.0
 10
202.9680391817
 20
355.0603517879
 10
202.9350759127
 20
355.2477684979
 10
202.8294089578
 20
355.4064033449
  0
LWPOLYLINE
  5
213
330
1F
100
AcDbEntity
  8
0
  6
Continuous
 62
     7
370
    25
100
AcDbPolyline
 90
        3
 70
   128
 43
0.0
 10
64.4703224765
 20
355.4061376638
 10
64.3648093737
 20
355.2475896959
 10
64.3318232829
 20
355.060352534
  0
ARC
  5
214
330
1F
100
AcDbEntity
  8
0
  6
Continuous
 62
     7
370
    25
100
AcDbCircle
 10
69.8178279215
 20
356.0508134827
 30
0.0
 40
0.4999999999993747
100
AcDbArc
 50
180.5
 51
270.0000000001
  0
ARC
  5
215
330
1F
100
AcDbEntity
  8
0
  6
Continuous
 62
     7
370
    25
100
AcDbCircle
 10
197.4821720785
 20
356.0508134827
 30
0.0
 40
0.499999999999889
100
AcDbArc
 50
270.0
 51
359.5
  0
LINE
  5
216
330
1F
100
AcDbEntity
  8
0
  6
Continuous
 62
     7
370
    25
100
AcDbLine
 10
69.31784696
 20
356.046450215
 30
0.0
 11
69.2174499027
 21
367.5508134827
 31
0.0
  0
LINE
  5
217
330
1F
100
AcDbEntity
  8
0
  6
Continuous
 62
     7
370
    25
100
AcDbLine
 10
64.4268947297
 20
367.5508134827
 30
0.0
 11
64.3135984062
 21
354.5683407126
 31
0.0
  0
LINE
  5
218
330
1F
100
AcDbEntity
  8
0
  6
Continuous
 62
     7
370
    25
100
AcDbLine
 10
202.9864015938
 20
354.5683407126
 30
0.0
 11
202.8731052703
 21
367.5508134827
 31
0.0
  0
LINE
  5
219
330
1F
100
AcDbEntity
  8
0
  6
Continuous
 62
     7
370
    25
100
AcDbLine
 10
198.0825500973
 20
367.5508134827
 30
0.0
 11
197.9821530401
 21
356.046450215
 31
0.0
  0
LINE
  5
21A
330
1F
100
AcDbEntity
  8
0
  6
Continuous
 62
     7
370
    25
100
AcDbLine
 10
202.8731052703
 20
367.5508134827
 30
0.0
 11
202.8731052703
 21
369.5508134827
 31
0.0
  0
LINE
  5
21B
330
1F
100
AcDbEntity
  8
0
  6
Continuous
 62
     7
370
    25
100
AcDbLine
 10
198.0825500973
 20
369.5508134827
 30
0.0
 11
198.0825500973
 21
367.5508134827
 31
0.0
  0
LINE
  5
21C
330
1F
100
AcDbEntity
  8
0
  6
Continuous
 62
     7
370
    25
100
AcDbLine
 10
69.2174499027
 20
367.5508134827
 30
0.0
 11
69.2174499027
 21
369.5508134827
 31
0.0
  0
LINE
  5
21D
330
1F
100
AcDbEntity
  8
0
  6
Continuous
 62
     7
370
    25
100
AcDbLine
 10
64.4268947297
 20
369.5508134827
 30
0.0
 11
64.4268947297
 21
367.5508134827
 31
0.0
  0
LINE
  5
21E
330
1F
100
AcDbEntity
  8
0
  6
Continuous
 62
     7
370
    25
100
AcDbLine
 10
63.9883009054
 20
363.9899426232
 30
0.0
 11
64.1276625071
 21
363.8836559851
 31
0.0
  0
ARC
  5
21F
330
1F
100
AcDbEntity
  8
0
  6
Continuous
 62
     7
370
    25
100
AcDbCircle
 10
66.0180246979
 20
366.5180547617
 30
0.0
 40
3.260282107415216
100
AcDbArc
 50
212.4838051375
 51
240.1081275813
  0
ARC
  5
220
330
1F
100
AcDbEntity
  8
0
  6
Continuous
 62
     7
370
    25
100
AcDbCircle
 10
66.5875699778
 20
367.1330809215
 30
0.0
 40
4.088201970479772
100
AcDbArc
 50
310.602155671
 51
175.2112843894
  0
ARC
  5
221
330
1F
100
AcDbEntity
  8
0
  6
Continuous
 62
     7
370
    25
100
AcDbCircle
 10
66.2619125883
 20
367.0759721675
 30
0.0
 40
2.813030378015696
100
AcDbArc
 50
156.7391764202
 51
228.6730963061
  0
LWPOLYLINE
  5
222
330
1F
100
AcDbEntity
  8
0
  6
Continuous
 62
     7
370
    25
100
AcDbPolyline
 90
        3
 70
   128
 43
0.0
 10
68.0744423377
 20
369.818191875
 10
68.3365506327
 20
369.70178657
 10
68.4900320983
 20
369.5508134827
  0
LINE
  5
223
330
1F
100
AcDbEntity
  8
0
  6
Continuous
 62
     7
370
    25
100
AcDbLine
 10
69.2174499027
 20
368.7355546244
 30
0.0
 11
69.2460483015
 21
368.6738442974
 31
0.0
  0
LINE
  5
224
330
1F
100
AcDbEntity
  8
0
  6
Continuous
 62
     7
370
    25
100
AcDbLine
 10
68.3565363449
 20
369.6266351452
 30
0.0
 11
68.516697147
 21
369.5116872455
 31
0.0
  0
ARC
  5
225
330
1F
100
AcDbEntity
  8
0
  6
Continuous
 62
     7
370
    25
100
AcDbCircle
 10
67.0453739561
 20
367.1335019659
 30
0.0
 40
2.686190997079879
100
AcDbArc
 50
324.5893928174
 51
34.9897536399
  0
ARC
  5
226
330
1F
100
AcDbEntity
  8
0
  6
Continuous
 62
     7
370
    25
100
AcDbCircle
 10
66.3000927866
 20
367.2565779595
 30
0.0
 40
2.813195783369366
100
AcDbArc
 50
131.7484320021
 51
177.2477773313
  0
ARC
  5
227
330
1F
100
AcDbEntity
  8
0
  6
Continuous
 62
     7
370
    25
100
AcDbCircle
 10
66.5836419122
 20
367.3674746936
 30
0.0
 40
2.89383296304483
100
AcDbArc
 50
47.9558542295
 51
131.0200551529
  0
LINE
  5
228
330
1F
100
AcDbEntity
  8
0
  6
Continuous
 62
     7
370
    25
100
AcDbLine
 10
58.8555211259
 20
312.6747706938
 30
0.0
 11
63.4901419555
 21
367.3916588346
 31
0.0
  0
LINE
  5
229
330
1F
100
AcDbEntity
  8
0
  6
Continuous
 62
     7
370
    25
100
AcDbLine
 10
62.5136386111
 20
367.4743704924
 30
0.0
 11
57.8790177787
 21
312.7574823192
 31
0.0
  0
LINE
  5
22A
330
1F
100
AcDbEntity
  8
0
  6
Continuous
 62
     7
370
    25
100
AcDbLine
 10
202.9341297701
 20
360.5580984318
 30
0.0
 11
208.4459429747
 21
312.6601099126
 31
0.0
  0
LINE
  5
22B
330
1F
100
AcDbEntity
  8
0
  6
Continuous
 62
     7
370
    25
100
AcDbLine
 10
203.3701212008
 20
365.3417664634
 30
0.0
 11
203.1388969702
 21
367.3511189456
 31
0.0
  0
LINE
  5
22C
330
1F
100
AcDbEntity
  8
0
  6
Continuous
 62
     7
370
    25
100
AcDbLine
 10
209.4195181207
 20
312.7721431004
 30
0.0
 11
203.484704864
 21
364.346027533
 31
0.0
  0
LINE
  5
22D
330
1F
100
AcDbEntity
  8
0
  6
Continuous
 62
     7
370
    25
100
AcDbLine
 10
198.8382280239
 20
369.5508134827
 30
0.0
 11
199.1182841613
 21
369.7527972347
 31
0.0
  0
ARC
  5
22E
330
1F
100
AcDbEntity
  8
0
  6
Continuous
 62
     7
370
    25
100
AcDbCircle
 10
200.1069010732
 20
367.0204341595
 30
0.0
 40
2.531871651407284
100
AcDbArc
 50
164.8504788681
 51
216.2412828567
  0
ARC
  5
22F
330
1F
100
AcDbEntity
  8
0
  6
Continuous
 62
     7
370
    25
100
AcDbCircle
 10
200.6879459445
 20
367.3682941466
 30
0.0
 40
2.912267020773072
100
AcDbArc
 50
48.5404046797
 51
131.536189249
  0
ARC
  5
230
330
1F
100
AcDbEntity
  8
0
  6
Continuous
 62
     7
370
    25
100
AcDbCircle
 10
201.1234391561
 20
367.1671806315
 30
0.0
 40
2.754821667726906
100
AcDbArc
 50
322.5460163926
 51
50.5704745649
  0
ARC
  5
231
330
1F
100
AcDbEntity
  8
0
  6
Continuous
 62
     7
370
    25
100
AcDbCircle
 10
200.4756349682
 20
367.1453475166
 30
0.0
 40
2.877109814920108
100
AcDbArc
 50
146.2806771826
 51
185.5579366247
  0
ARC
  5
232
330
1F
100
AcDbEntity
  8
0
  6
Continuous
 62
     7
370
    25
100
AcDbCircle
 10
200.7066734019
 20
367.1361167146
 30
0.0
 40
4.086326384050904
100
AcDbArc
 50
313.2427958541
 51
184.943541726
  0
LINE
  5
233
330
1F
100
AcDbEntity
  8
0
  6
Continuous
 62
     7
370
    25
100
AcDbLine
 10
204.7863613889
 20
367.4743704924
 30
0.0
 11
204.7507435763
 21
367.6690074538
 31
0.0
  0
LWPOLYLINE
  5
234
330
1F
100
AcDbEntity
  8
0
  6
Continuous
 62
     7
370
    25
100
AcDbPolyline
 90
        3
 70
   128
 43
0.0
 10
197.6054593164
 20
364.483828435
 10
198.0029995876
 20
364.0640364798
 10
198.051808724
 20
364.0282010051
  0
LINE
  5
235
330
1F
100
AcDbEntity
  8
0
  6
Continuous
 62
     7
370
    25
100
AcDbLine
 10
196.6355477589
 20
366.783981349
 30
0.0
 11
196.6274941079
 21
363.8726676231
 31
0.0
  0
LINE
  5
236
330
1F
100
AcDbEntity
  8
0
  6
Continuous
 62
     7
370
    25
100
AcDbLine
 10
197.6039974523
 20
363.9553792808
 30
0.0
 11
197.6120511033
 21
366.8666930067
 31
0.0
  0
LINE
  5
237
330
1F
100
AcDbEntity
  8
0
  6
Continuous
 62
     7
370
    25
100
AcDbLine
 10
196.5846077431
 20
363.8838644743
 30
0.0
 11
192.5847203488
 21
361.5892582233
 31
0.0
  0
LINE
  5
238
330
1F
100
AcDbEntity
  8
0
  6
Continuous
 62
     7
370
    25
100
AcDbLine
 10
193.1446024179
 20
360.784937349
 30
0.0
 11
197.1444898121
 21
363.0795436001
 31
0.0
  0
ARC
  5
239
330
1F
100
AcDbEntity
  8
0
  6
Continuous
 62
     7
370
    25
100
AcDbCircle
 10
196.6157476831
 20
363.9154067301
 30
0.0
 40
0.0443239186365473
100
AcDbArc
 50
225.367738785
 51
285.367738785
  0
ARC
  5
23A
330
1F
100
AcDbEntity
  8
0
  6
Continuous
 62
     7
370
    25
100
AcDbCircle
 10
196.6157476831
 20
363.9154067301
 30
0.0
 40
0.9890578400978656
100
AcDbArc
 50
302.316226905
 51
2.316226905
  0
LINE
  5
23B
330
1F
100
AcDbEntity
  8
0
  6
Continuous
 62
     7
370
    25
100
AcDbLine
 10
63.7927363212
 20
364.149990075
 30
0.0
 11
61.6059571209
 21
345.1467471962
 31
0.0
  0
LINE
  5
23C
330
1F
100
AcDbEntity
  8
0
  6
Continuous
 62
     7
370
    25
100
AcDbLine
 10
64.1611030298
 20
367.3511189456
 30
0.0
 11
63.9560304584
 21
365.5690259562
 31
0.0
  0
LINE
  5
23D
330
1F
100
AcDbEntity
  8
0
  6
Continuous
 62
     7
370
    25
100
AcDbLine
 10
58.8540570253
 20
312.6601099126
 30
0.0
 11
64.3658702299
 21
360.558098432
 31
0.0
  0
LINE
  5
23E
330
1F
100
AcDbEntity
  8
0
  6
Continuous
 62
     7
370
    25
100
AcDbLine
 10
69.6945385187
 20
364.4846110171
 30
0.0
 11
69.6960025477
 21
363.9553792808
 31
0.0
  0
LINE
  5
23F
330
1F
100
AcDbEntity
  8
0
  6
Continuous
 62
     7
370
    25
100
AcDbLine
 10
70.6725058921
 20
363.8726676231
 30
0.0
 11
70.6644522411
 21
366.783981349
 31
0.0
  0
LINE
  5
240
330
1F
100
AcDbEntity
  8
0
  6
Continuous
 62
     7
370
    25
100
AcDbLine
 10
70.1555101879
 20
363.0795436001
 30
0.0
 11
74.1553975821
 21
360.784937349
 31
0.0
  0
LINE
  5
241
330
1F
100
AcDbEntity
  8
0
  6
Continuous
 62
     7
370
    25
100
AcDbLine
 10
74.7152796512
 20
361.5892582233
 30
0.0
 11
70.7153922569
 21
363.8838644743
 31
0.0
  0
ARC
  5
242
330
1F
100
AcDbEntity
  8
0
  6
Continuous
 62
     7
370
    25
100
AcDbCircle
 10
70.6842523169
 20
363.9154067301
 30
0.0
 40
0.9890578400980083
100
AcDbArc
 50
177.683773095
 51
237.683773095
  0
ARC
  5
243
330
1F
100
AcDbEntity
  8
0
  6
Continuous
 62
     7
370
    25
100
AcDbCircle
 10
70.6842523169
 20
363.9154067301
 30
0.0
 40
0.044323918636756
100
AcDbArc
 50
254.6322612151
 51
314.6322612149
  0
LINE
  5
244
330
1F
100
AcDbEntity
  8
0
  6
Continuous
 62
     7
370
    25
100
AcDbLine
 10
209.4209822213
 20
312.7574823192
 30
0.0
 11
204.7863613889
 21
367.4743704924
 31
0.0
  0
LINE
  5
245
330
1F
100
AcDbEntity
  8
0
  6
Continuous
 62
     7
370
    25
100
AcDbLine
 10
204.032204323
 20
364.7666120623
 30
0.0
 11
205.6940428791
 21
345.1467471962
 31
0.0
  0
LINE
  5
246
330
1F
100
AcDbEntity
  8
0
  6
Continuous
 62
     7
370
    25
100
AcDbLine
 10
60.1857235304
 20
316.5678224807
 30
0.0
 11
60.26413445
 21
316.5527689685
 31
0.0
  0
LINE
  5
247
330
1F
100
AcDbEntity
  8
0
  6
Continuous
 62
     7
370
    25
100
AcDbLine
 10
60.5572142615
 20
317.0072356114
 30
0.0
 11
60.4046709638
 21
318.7508134827
 31
0.0
  0
LINE
  5
248
330
1F
100
AcDbEntity
  8
0
  6
Continuous
 62
     7
370
    25
100
AcDbLine
 10
206.8953290362
 20
318.7508134827
 30
0.0
 11
60.4046709638
 21
318.7508134827
 31
0.0
  0
LINE
  5
249
330
1F
100
AcDbEntity
  8
0
  6
Continuous
 62
     7
370
    25
100
AcDbLine
 10
206.8953290362
 20
318.7508134827
 30
0.0
 11
206.7427857385
 21
317.0072356114
 31
0.0
  0
LINE
  5
24A
330
1F
100
AcDbEntity
  8
0
  6
Continuous
 62
     7
370
    25
100
AcDbLine
 10
206.7427857385
 20
317.0072356114
 30
0.0
 11
60.5572142615
 21
317.0072356114
 31
0.0
  0
LINE
  5
24B
330
1F
100
AcDbEntity
  8
0
  6
Continuous
 62
     7
370
    25
100
AcDbLine
 10
207.6424750598
 20
318.7508134827
 30
0.0
 11
206.8953290362
 21
318.7508134827
 31
0.0
  0
LINE
  5
24C
330
1F
100
AcDbEntity
  8
0
  6
Continuous
 62
     7
370
    25
100
AcDbLine
 10
207.489931762
 20
317.0072356114
 30
0.0
 11
207.6424750598
 21
318.7508134827
 31
0.0
  0
ARC
  5
24D
330
1F
100
AcDbEntity
  8
0
  6
Continuous
 62
     7
370
    25
100
AcDbCircle
 10
207.1163587503
 20
320.1856160273
 30
0.0
 40
3.200259186907815
100
AcDbArc
 50
263.2964593206
 51
276.7035406794
  0
LINE
  5
24E
330
1F
100
AcDbEntity
  8
0
  6
Continuous
 62
     7
370
    25
100
AcDbLine
 10
59.6575249403
 20
318.7508134827
 30
0.0
 11
59.810068238
 21
317.0072356114
 31
0.0
  0
LINE
  5
24F
330
1F
100
AcDbEntity
  8
0
  6
Continuous
 62
     7
370
    25
100
AcDbLine
 10
60.4046709638
 20
318.7508134827
 30
0.0
 11
59.6575249403
 21
318.7508134827
 31
0.0
  0
ARC
  5
250
330
1F
100
AcDbEntity
  8
0
  6
Continuous
 62
     7
370
    25
100
AcDbCircle
 10
60.1836412498
 20
320.1856160273
 30
0.0
 40
3.200259186901047
100
AcDbArc
 50
263.2964593206
 51
276.7035406794
  0
LINE
  5
251
330
1F
100
AcDbEntity
  8
0
  6
Continuous
 62
     7
370
    25
100
AcDbLine
 10
206.7427857385
 20
317.0072356114
 30
0.0
 11
206.7427857385
 21
316.5508134827
 31
0.0
  0
LINE
  5
252
330
1F
100
AcDbEntity
  8
0
  6
Continuous
 62
     7
370
    25
100
AcDbLine
 10
60.5572142615
 20
316.5508134827
 30
0.0
 11
206.7427857385
 21
316.5508134827
 31
0.0
  0
LINE
  5
253
330
1F
100
AcDbEntity
  8
0
  6
Continuous
 62
     7
370
    25
100
AcDbLine
 10
60.5572142615
 20
317.0072356114
 30
0.0
 11
60.5572142615
 21
316.5508134827
 31
0.0
  0
ARC
  5
254
330
1F
100
AcDbEntity
  8
0
  6
Continuous
 62
     7
370
    25
100
AcDbCircle
 10
206.991834413
 20
317.0508134827
 30
0.0
 40
0.5000000000000568
100
AcDbArc
 50
270.0
 51
355.0
  0
LINE
  5
255
330
1F
100
AcDbEntity
  8
0
  6
Continuous
 62
     7
370
    25
100
AcDbLine
 10
206.7427857385
 20
316.5508134827
 30
0.0
 11
206.991834413
 21
316.5508134827
 31
0.0
  0
LINE
  5
256
330
1F
100
AcDbEntity
  8
0
  6
Continuous
 62
     7
370
    25
100
AcDbLine
 10
60.308165587
 20
316.5508134827
 30
0.0
 11
60.5572142615
 21
316.5508134827
 31
0.0
  0
ARC
  5
257
330
1F
100
AcDbEntity
  8
0
  6
Continuous
 62
     7
370
    25
100
AcDbCircle
 10
60.308165587
 20
317.0508134827
 30
0.0
 40
0.4999999999979212
100
AcDbArc
 50
185.0
 51
270.0000000002
  0
LWPOLYLINE
  5
258
330
1F
100
AcDbEntity
  8
0
  6
Continuous
 62
     7
370
    25
100
AcDbPolyline
 90
        9
 70
   128
 43
0.0
 10
70.5485261508
 20
318.7508134827
 10
70.6099902318
 20
318.7603147291
 10
70.6691183713
 20
318.7884573733
 10
70.7236634052
 20
318.8341718546
 10
70.7715523503
 20
318.8957207949
 10
70.810965188
 20
318.9707650276
 10
70.840404034
 20
319.0564524977
 10
70.8587500653
 20
319.1495266541
 10
70.8653060414
 20
319.246450215
  0
LINE
  5
259
330
1F
100
AcDbEntity
  8
0
  6
Continuous
 62
     7
370
    25
100
AcDbLine
 10
74.4346939587
 20
319.246450215
 30
0.0
 11
70.8653060414
 21
319.246450215
 31
0.0
  0
LWPOLYLINE
  5
25A
330
1F
100
AcDbEntity
  8
0
  6
Continuous
 62
     7
370
    25
100
AcDbPolyline
 90
        9
 70
   128
 43
0.0
 10
74.7514738492
 20
318.7508134827
 10
74.6900097682
 20
318.7603147291
 10
74.6308816288
 20
318.7884573733
 10
74.5763365948
 20
318.8341718546
 10
74.5284476497
 20
318.8957207949
 10
74.489034812
 20
318.9707650276
 10
74.459595966
 20
319.0564524977
 10
74.4412499347
 20
319.1495266541
 10
74.4346939587
 20
319.246450215
  0
LWPOLYLINE
  5
25B
330
1F
100
AcDbEntity
  8
0
  6
Continuous
 62
     7
370
    25
100
AcDbPolyline
 90
        9
 70
   128
 43
0.0
 10
109.5485261508
 20
318.7508134827
 10
109.6099902318
 20
318.7603147291
 10
109.6691183713
 20
318.7884573733
 10
109.7236634052
 20
318.8341718546
 10
109.7715523503
 20
318.8957207949
 10
109.810965188
 20
318.9707650276
 10
109.840404034
 20
319.0564524977
 10
109.8587500653
 20
319.1495266541
 10
109.8653060414
 20
319.246450215
  0
LINE
  5
25C
330
1F
100
AcDbEntity
  8
0
  6
Continuous
 62
     7
370
    25
100
AcDbLine
 10
113.4346939587
 20
319.246450215
 30
0.0
 11
109.8653060414
 21
319.246450215
 31
0.0
  0
LWPOLYLINE
  5
25D
330
1F
100
AcDbEntity
  8
0
  6
Continuous
 62
     7
370
    25
100
AcDbPolyline
 90
        9
 70
   128
 43
0.0
 10
113.7514738492
 20
318.7508134827
 10
113.6900097682
 20
318.7603147291
 10
113.6308816288
 20
318.7884573733
 10
113.5763365948
 20
318.8341718546
 10
113.5284476497
 20
318.8957207949
 10
113.489034812
 20
318.9707650276
 10
113.459595966
 20
319.0564524977
 10
113.4412499347
 20
319.1495266541
 10
113.4346939587
 20
319.246450215
  0
LINE
  5
25E
330
1F
100
AcDbEntity
  8
0
  6
Continuous
 62
     7
370
    25
100
AcDbLine
 10
157.4346939587
 20
319.246450215
 30
0.0
 11
153.8653060414
 21
319.246450215
 31
0.0
  0
LWPOLYLINE
  5
25F
330
1F
100
AcDbEntity
  8
0
  6
Continuous
 62
     7
370
    25
100
AcDbPolyline
 90
        9
 70
   128
 43
0.0
 10
157.4346939587
 20
319.246450215
 10
157.4412499347
 20
319.1495266541
 10
157.459595966
 20
319.0564524977
 10
157.489034812
 20
318.9707650276
 10
157.5284476497
 20
318.8957207949
 10
157.5763365948
 20
318.8341718546
 10
157.6308816288
 20
318.7884573733
 10
157.6900097682
 20
318.7603147291
 10
157.7514738492
 20
318.7508134827
  0
LWPOLYLINE
  5
260
330
1F
100
AcDbEntity
  8
0
  6
Continuous
 62
     7
370
    25
100
AcDbPolyline
 90
        9
 70
   128
 43
0.0
 10
153.8653060414
 20
319.246450215
 10
153.8587500653
 20
319.1495266541
 10
153.840404034
 20
319.0564524977
 10
153.810965188
 20
318.9707650276
 10
153.7715523503
 20
318.8957207949
 10
153.7236634052
 20
318.8341718546
 10
153.6691183713
 20
318.7884573733
 10
153.6099902318
 20
318.7603147291
 10
153.5485261508
 20
318.7508134827
  0
LINE
  5
261
330
1F
100
AcDbEntity
  8
0
  6
Continuous
 62
     7
370
    25
100
AcDbLine
 10
196.4346939587
 20
319.246450215
 30
0.0
 11
192.8653060414
 21
319.246450215
 31
0.0
  0
LWPOLYLINE
  5
262
330
1F
100
AcDbEntity
  8
0
  6
Continuous
 62
     7
370
    25
100
AcDbPolyline
 90
        9
 70
   128
 43
0.0
 10
196.4346939587
 20
319.246450215
 10
196.4412499347
 20
319.1495266541
 10
196.459595966
 20
319.0564524977
 10
196.489034812
 20
318.9707650276
 10
196.5284476497
 20
318.8957207949
 10
196.5763365948
 20
318.8341718546
 10
196.6308816288
 20
318.7884573733
 10
196.6900097682
 20
318.7603147291
 10
196.7514738492
 20
318.7508134827
  0
LWPOLYLINE
  5
263
330
1F
100
AcDbEntity
  8
0
  6
Continuous
 62
     7
370
    25
100
AcDbPolyline
 90
        9
 70
   128
 43
0.0
 10
192.8653060414
 20
319.246450215
 10
192.8587500653
 20
319.1495266541
 10
192.840404034
 20
319.0564524977
 10
192.810965188
 20
318.9707650276
 10
192.7715523503
 20
318.8957207949
 10
192.7236634052
 20
318.8341718546
 10
192.6691183713
 20
318.7884573733
 10
192.6099902318
 20
318.7603147291
 10
192.5485261508
 20
318.7508134827
  0
LWPOLYLINE
  5
264
330
1F
100
AcDbEntity
  8
0
  6
Continuous
 62
     7
370
    25
100
AcDbPolyline
 90
        5
 70
   128
 43
0.0
 10
153.8653060414
 20
319.246450215
 10
153.8299822865
 20
328.9769548312
 10
153.8030857382
 20
338.9593429521
 10
153.7879378659
 20
346.9559983556
 10
153.7780939541
 20
355.0682655569
  0
LWPOLYLINE
  5
265
330
1F
100
AcDbEntity
  8
0
  6
Continuous
 62
     7
370
    25
100
AcDbPolyline
 90
        3
 70
   128
 43
0.0
 10
153.7780939541
 20
355.0682655569
 10
153.7616630169
 20
355.3447285506
 10
153.7284835249
 20
355.5508134827
  0
LINE
  5
266
330
1F
100
AcDbEntity
  8
0
  6
Continuous
 62
     7
370
    25
100
AcDbLine
 10
157.5715164751
 20
355.5508134827
 30
0.0
 11
153.7284835249
 21
355.5508134827
 31
0.0
  0
LWPOLYLINE
  5
267
330
1F
100
AcDbEntity
  8
0
  6
Continuous
 62
     7
370
    25
100
AcDbPolyline
 90
        3
 70
   128
 43
0.0
 10
157.5715164751
 20
355.5508134827
 10
157.5321636783
 20
355.2862492289
 10
157.5219060459
 20
355.0682655569
  0
LWPOLYLINE
  5
268
330
1F
100
AcDbEntity
  8
0
  6
Continuous
 62
     7
370
    25
100
AcDbPolyline
 90
        5
 70
   128
 43
0.0
 10
157.5219060459
 20
355.0682655569
 10
157.5044556316
 20
342.5787129149
 10
157.4864272963
 20
334.6526150641
 10
157.4631531024
 20
326.8694361415
 10
157.4346939587
 20
319.246450215
  0
LWPOLYLINE
  5
269
330
1F
100
AcDbEntity
  8
0
  6
Continuous
 62
     7
370
    25
100
AcDbPolyline
 90
        5
 70
   128
 43
0.0
 10
192.8653060414
 20
319.246450215
 10
192.8299822865
 20
328.9769548312
 10
192.8030857382
 20
338.9593429521
 10
192.7879378659
 20
346.9559983556
 10
192.7780939541
 20
355.0682655569
  0
LWPOLYLINE
  5
26A
330
1F
100
AcDbEntity
  8
0
  6
Continuous
 62
     7
370
    25
100
AcDbPolyline
 90
        3
 70
   128
 43
0.0
 10
192.7780939541
 20
355.0682655569
 10
192.7616630169
 20
355.3447285506
 10
192.7284835249
 20
355.5508134827
  0
LINE
  5
26B
330
1F
100
AcDbEntity
  8
0
  6
Continuous
 62
     7
370
    25
100
AcDbLine
 10
196.5715164751
 20
355.5508134827
 30
0.0
 11
192.7284835249
 21
355.5508134827
 31
0.0
  0
LWPOLYLINE
  5
26C
330
1F
100
AcDbEntity
  8
0
  6
Continuous
 62
     7
370
    25
100
AcDbPolyline
 90
        3
 70
   128
 43
0.0
 10
196.5715164751
 20
355.5508134827
 10
196.5321636573
 20
355.2862490025
 10
196.5219060459
 20
355.0682655569
  0
LWPOLYLINE
  5
26D
330
1F
100
AcDbEntity
  8
0
  6
Continuous
 62
     7
370
    25
100
AcDbPolyline
 90
        5
 70
   128
 43
0.0
 10
196.5219060459
 20
355.0682655569
 10
196.5044556316
 20
342.5787129149
 10
196.4864272963
 20
334.6526150641
 10
196.4631531024
 20
326.8694361415
 10
196.4346939587
 20
319.246450215
  0
LWPOLYLINE
  5
26E
330
1F
100
AcDbEntity
  8
0
  6
Continuous
 62
     7
370
    25
100
AcDbPolyline
 90
        5
 70
   128
 43
0.0
 10
70.8653060414
 20
319.246450215
 10
70.8235048122
 20
331.096043052
 10
70.8030855985
 20
338.9593405671
 10
70.7879378427
 20
346.9559980372
 10
70.7780939541
 20
355.0682655569
  0
LWPOLYLINE
  5
26F
330
1F
100
AcDbEntity
  8
0
  6
Continuous
 62
     7
370
    25
100
AcDbPolyline
 90
        3
 70
   128
 43
0.0
 10
70.7780939541
 20
355.0682655569
 10
70.7616630169
 20
355.3447285506
 10
70.7284835249
 20
355.5508134827
  0
LINE
  5
270
330
1F
100
AcDbEntity
  8
0
  6
Continuous
 62
     7
370
    25
100
AcDbLine
 10
74.5715164751
 20
355.5508134827
 30
0.0
 11
70.7284835249
 21
355.5508134827
 31
0.0
  0
LWPOLYLINE
  5
271
330
1F
100
AcDbEntity
  8
0
  6
Continuous
 62
     7
370
    25
100
AcDbPolyline
 90
        3
 70
   128
 43
0.0
 10
74.5715164751
 20
355.5508134827
 10
74.5321636573
 20
355.2862490025
 10
74.5219060459
 20
355.0682655569
  0
LWPOLYLINE
  5
272
330
1F
100
AcDbEntity
  8
0
  6
Continuous
 62
     7
370
    25
100
AcDbPolyline
 90
        5
 70
   128
 43
0.0
 10
74.5219060459
 20
355.0682655569
 10
74.5044556316
 20
342.5787129149
 10
74.4864272963
 20
334.6526150641
 10
74.4631531024
 20
326.8694361415
 10
74.4346939587
 20
319.246450215
  0
LWPOLYLINE
  5
273
330
1F
100
AcDbEntity
  8
0
  6
Continuous
 62
     7
370
    25
100
AcDbPolyline
 90
        5
 70
   128
 43
0.0
 10
109.8653060414
 20
319.246450215
 10
109.8299822865
 20
328.9769548312
 10
109.8030857382
 20
338.9593429521
 10
109.7879378659
 20
346.9559983556
 10
109.7780939541
 20
355.0682655569
  0
LWPOLYLINE
  5
274
330
1F
100
AcDbEntity
  8
0
  6
Continuous
 62
     7
370
    25
100
AcDbPolyline
 90
        3
 70
   128
 43
0.0
 10
109.7780939541
 20
355.0682655569
 10
109.7616630063
 20
355.3447286413
 10
109.7284835249
 20
355.5508134827
  0
LINE
  5
275
330
1F
100
AcDbEntity
  8
0
  6
Continuous
 62
     7
370
    25
100
AcDbLine
 10
113.5715164751
 20
355.5508134827
 30
0.0
 11
109.7284835249
 21
355.5508134827
 31
0.0
  0
LWPOLYLINE
  5
276
330
1F
100
AcDbEntity
  8
0
  6
Continuous
 62
     7
370
    25
100
AcDbPolyline
 90
        3
 70
   128
 43
0.0
 10
113.5715164751
 20
355.5508134827
 10
113.5321636783
 20
355.2862492287
 10
113.5219060459
 20
355.0682655569
  0
LWPOLYLINE
  5
277
330
1F
100
AcDbEntity
  8
0
  6
Continuous
 62
     7
370
    25
100
AcDbPolyline
 90
        5
 70
   128
 43
0.0
 10
113.5219060459
 20
355.0682655569
 10
113.5044556316
 20
342.5787129149
 10
113.4864272963
 20
334.6526150641
 10
113.4631531024
 20
326.8694361415
 10
113.4346939587
 20
319.246450215
  0
LINE
  5
278
330
1F
100
AcDbEntity
  8
0
  6
Continuous
 62
     7
370
    25
100
AcDbLine
 10
192.5681198131
 20
319.2438636388
 30
0.0
 11
192.2317133618
 21
319.2420872795
 31
0.0
  0
LINE
  5
279
330
1F
100
AcDbEntity
  8
0
  6
Continuous
 62
     7
370
    25
100
AcDbLine
 10
192.8653060414
 20
319.246450215
 30
0.0
 11
192.5681280331
 21
319.2438636954
 31
0.0
  0
LINE
  5
27A
330
1F
100
AcDbEntity
  8
0
  6
Continuous
 62
     7
370
    25
100
AcDbLine
 10
192.2317133618
 20
319.2420872803
 30
0.0
 11
192.2317133618
 21
318.7508134827
 31
0.0
  0
LINE
  5
27B
330
1F
100
AcDbEntity
  8
0
  6
Continuous
 62
     7
370
    25
100
AcDbLine
 10
153.5681198131
 20
319.2438636388
 30
0.0
 11
153.2317133618
 21
319.2420872795
 31
0.0
  0
LINE
  5
27C
330
1F
100
AcDbEntity
  8
0
  6
Continuous
 62
     7
370
    25
100
AcDbLine
 10
153.8653060414
 20
319.246450215
 30
0.0
 11
153.5681280331
 21
319.2438636954
 31
0.0
  0
LINE
  5
27D
330
1F
100
AcDbEntity
  8
0
  6
Continuous
 62
     7
370
    25
100
AcDbLine
 10
153.2317133618
 20
319.2420872801
 30
0.0
 11
153.2317133618
 21
318.7508134827
 31
0.0
  0
LINE
  5
27E
330
1F
100
AcDbEntity
  8
0
  6
Continuous
 62
     7
370
    25
100
AcDbLine
 10
196.7318803433
 20
319.2438636378
 30
0.0
 11
196.4346939587
 21
319.246450215
 31
0.0
  0
LINE
  5
27F
330
1F
100
AcDbEntity
  8
0
  6
Continuous
 62
     7
370
    25
100
AcDbLine
 10
197.0682866382
 20
319.2420872795
 30
0.0
 11
196.7318803433
 21
319.2438636378
 31
0.0
  0
LINE
  5
280
330
1F
100
AcDbEntity
  8
0
  6
Continuous
 62
     7
370
    25
100
AcDbLine
 10
197.0682866382
 20
319.2420872795
 30
0.0
 11
197.0682866382
 21
318.7508134827
 31
0.0
  0
LINE
  5
281
330
1F
100
AcDbEntity
  8
0
  6
Continuous
 62
     7
370
    25
100
AcDbLine
 10
74.7318803433
 20
319.2438636378
 30
0.0
 11
74.4346939587
 21
319.246450215
 31
0.0
  0
LINE
  5
282
330
1F
100
AcDbEntity
  8
0
  6
Continuous
 62
     7
370
    25
100
AcDbLine
 10
75.0682866382
 20
319.2420872795
 30
0.0
 11
74.7318803433
 21
319.2438636378
 31
0.0
  0
LINE
  5
283
330
1F
100
AcDbEntity
  8
0
  6
Continuous
 62
     7
370
    25
100
AcDbLine
 10
75.0682866382
 20
318.7508134827
 30
0.0
 11
75.0682866382
 21
319.2420872795
 31
0.0
  0
LINE
  5
284
330
1F
100
AcDbEntity
  8
0
  6
Continuous
 62
     7
370
    25
100
AcDbLine
 10
109.5681198132
 20
319.2438636388
 30
0.0
 11
109.2317133618
 21
319.2420872795
 31
0.0
  0
LINE
  5
285
330
1F
100
AcDbEntity
  8
0
  6
Continuous
 62
     7
370
    25
100
AcDbLine
 10
109.8653060414
 20
319.246450215
 30
0.0
 11
109.5681199838
 21
319.24386364
 31
0.0
  0
LINE
  5
286
330
1F
100
AcDbEntity
  8
0
  6
Continuous
 62
     7
370
    25
100
AcDbLine
 10
109.2317133618
 20
318.7508134827
 30
0.0
 11
109.2317133618
 21
319.2420872801
 31
0.0
  0
LINE
  5
287
330
1F
100
AcDbEntity
  8
0
  6
Continuous
 62
     7
370
    25
100
AcDbLine
 10
70.5681196567
 20
319.2438636378
 30
0.0
 11
70.2317133618
 21
319.2420872795
 31
0.0
  0
LINE
  5
288
330
1F
100
AcDbEntity
  8
0
  6
Continuous
 62
     7
370
    25
100
AcDbLine
 10
70.8653060414
 20
319.246450215
 30
0.0
 11
70.5681199838
 21
319.24386364
 31
0.0
  0
LINE
  5
289
330
1F
100
AcDbEntity
  8
0
  6
Continuous
 62
     7
370
    25
100
AcDbLine
 10
70.2317133618
 20
318.7508134827
 30
0.0
 11
70.2317133618
 21
319.2420872796
 31
0.0
  0
LINE
  5
28A
330
1F
100
AcDbEntity
  8
0
  6
Continuous
 62
     7
370
    25
100
AcDbLine
 10
157.7318803433
 20
319.2438636378
 30
0.0
 11
157.4346939587
 21
319.246450215
 31
0.0
  0
LINE
  5
28B
330
1F
100
AcDbEntity
  8
0
  6
Continuous
 62
     7
370
    25
100
AcDbLine
 10
158.0682866382
 20
319.2420872795
 30
0.0
 11
157.7318803433
 21
319.2438636378
 31
0.0
  0
LINE
  5
28C
330
1F
100
AcDbEntity
  8
0
  6
Continuous
 62
     7
370
    25
100
AcDbLine
 10
158.0682866382
 20
319.2420872795
 30
0.0
 11
158.0682866382
 21
318.7508134827
 31
0.0
  0
LINE
  5
28D
330
1F
100
AcDbEntity
  8
0
  6
Continuous
 62
     7
370
    25
100
AcDbLine
 10
113.7318803433
 20
319.2438636378
 30
0.0
 11
113.4346939587
 21
319.246450215
 31
0.0
  0
LINE
  5
28E
330
1F
100
AcDbEntity
  8
0
  6
Continuous
 62
     7
370
    25
100
AcDbLine
 10
114.0682866382
 20
319.2420872795
 30
0.0
 11
113.7318803433
 21
319.2438636378
 31
0.0
  0
LINE
  5
28F
330
1F
100
AcDbEntity
  8
0
  6
Continuous
 62
     7
370
    25
100
AcDbLine
 10
114.0682866382
 20
318.7508134827
 30
0.0
 11
114.0682866382
 21
319.2420872795
 31
0.0
  0
LINE
  5
290
330
1F
100
AcDbEntity
  8
0
  6
Continuous
 62
     7
370
    25
100
AcDbLine
 10
65.7020605851
 20
319.2420872795
 30
0.0
 11
63.6969763589
 21
319.2420872795
 31
0.0
  0
LINE
  5
291
330
1F
100
AcDbEntity
  8
0
  6
Continuous
 62
     7
370
    25
100
AcDbLine
 10
65.7020605851
 20
318.7508134827
 30
0.0
 11
65.7020605851
 21
319.2420872795
 31
0.0
  0
ARC
  5
292
330
1F
100
AcDbEntity
  8
0
  6
Continuous
 62
     7
370
    25
100
AcDbCircle
 10
63.1970525113
 20
319.2508134827
 30
0.0
 40
0.5000000000000068
100
AcDbArc
 50
270.0
 51
359.0
  0
LINE
  5
293
330
1F
100
AcDbEntity
  8
0
  6
Continuous
 62
     7
370
    25
100
AcDbLine
 10
203.6030236412
 20
319.2420872795
 30
0.0
 11
201.5979394149
 21
319.2420872795
 31
0.0
  0
ARC
  5
294
330
1F
100
AcDbEntity
  8
0
  6
Continuous
 62
     7
370
    25
100
AcDbCircle
 10
204.1029474887
 20
319.2508134827
 30
0.0
 40
0.500000000000022
100
AcDbArc
 50
181.0
 51
225.5540047289
  0
ARC
  5
295
330
1F
100
AcDbEntity
  8
0
  6
Continuous
 62
     7
370
    25
100
AcDbCircle
 10
204.1029474887
 20
319.2508134827
 30
0.0
 40
0.5000000000000122
100
AcDbArc
 50
227.7151921921
 51
270.0
  0
LINE
  5
296
330
1F
100
AcDbEntity
  8
0
  6
Continuous
 62
     7
370
    25
100
AcDbLine
 10
201.5979394149
 20
319.2420872795
 30
0.0
 11
201.5979394149
 21
318.7508134827
 31
0.0
  0
LINE
  5
297
330
1F
100
AcDbEntity
  8
0
  6
Continuous
 62
     7
370
    25
100
AcDbLine
 10
192.2317134688
 20
319.2420872795
 30
0.0
 11
158.0682866382
 21
319.2420872795
 31
0.0
  0
LINE
  5
298
330
1F
100
AcDbEntity
  8
0
  6
Continuous
 62
     7
370
    25
100
AcDbLine
 10
153.2317133618
 20
319.2420872795
 30
0.0
 11
114.0682866382
 21
319.2420872795
 31
0.0
  0
LINE
  5
299
330
1F
100
AcDbEntity
  8
0
  6
Continuous
 62
     7
370
    25
100
AcDbLine
 10
201.5979394149
 20
319.2420872795
 30
0.0
 11
197.0682866382
 21
319.2420872795
 31
0.0
  0
LINE
  5
29A
330
1F
100
AcDbEntity
  8
0
  6
Continuous
 62
     7
370
    25
100
AcDbLine
 10
70.2317133618
 20
319.2420872795
 30
0.0
 11
65.7020605851
 21
319.2420872795
 31
0.0
  0
LINE
  5
29B
330
1F
100
AcDbEntity
  8
0
  6
Continuous
 62
     7
370
    25
100
AcDbLine
 10
109.2317133618
 20
319.2420872795
 30
0.0
 11
75.0682866382
 21
319.2420872795
 31
0.0
  0
LWPOLYLINE
  5
29C
330
1F
100
AcDbEntity
  8
0
  6
Continuous
 62
     7
370
    25
100
AcDbPolyline
 90
        5
 70
   128
 43
0.0
 10
70.0306191324
 20
355.0595396859
 10
70.0859157206
 20
342.5715598839
 10
70.1289567604
 20
334.6464362638
 10
70.1775919594
 20
326.8641895249
 10
70.2317133618
 20
319.2420872795
  0
ARC
  5
29D
330
1F
100
AcDbEntity
  8
0
  6
Continuous
 62
     7
370
    25
100
AcDbCircle
 10
69.9263327154
 20
396.0123409633
 30
0.0
 40
40.9529340562982
100
AcDbArc
 50
270.1459035534
 51
271.1917545086
  0
ARC
  5
29E
330
1F
100
AcDbEntity
  8
0
  6
Continuous
 62
     7
370
    25
100
AcDbCircle
 10
114.3736674321
 20
396.0123536518
 30
0.0
 40
40.95294674517145
100
AcDbArc
 50
268.8082456538
 51
269.8540962849
  0
LWPOLYLINE
  5
29F
330
1F
100
AcDbEntity
  8
0
  6
Continuous
 62
     7
370
    25
100
AcDbPolyline
 90
        5
 70
   128
 43
0.0
 10
114.0682866382
 20
319.2420872795
 10
114.1496236226
 20
331.0902935788
 10
114.1952200495
 20
338.9526351591
 10
114.235168664
 20
346.9482982594
 10
114.2693808676
 20
355.0595396859
  0
ARC
  5
2A0
330
1F
100
AcDbEntity
  8
0
  6
Continuous
 62
     7
370
    25
100
AcDbCircle
 10
158.3736674323
 20
396.0123536701
 30
0.0
 40
40.95294676347
100
AcDbArc
 50
268.8082456541
 51
269.8540962847
  0
LWPOLYLINE
  5
2A1
330
1F
100
AcDbEntity
  8
0
  6
Continuous
 62
     7
370
    25
100
AcDbPolyline
 90
        5
 70
   128
 43
0.0
 10
158.0682866382
 20
319.2420872795
 10
158.1496236226
 20
331.0902935788
 10
158.1952200495
 20
338.9526351591
 10
158.235168664
 20
346.9482982595
 10
158.2693808676
 20
355.0595396859
  0
ARC
  5
2A2
330
1F
100
AcDbEntity
  8
0
  6
Continuous
 62
     7
370
    25
100
AcDbCircle
 10
75.3736674323
 20
396.0123536685
 30
0.0
 40
40.95294676179813
100
AcDbArc
 50
268.808245654
 51
269.8540962847
  0
LWPOLYLINE
  5
2A3
330
1F
100
AcDbEntity
  8
0
  6
Continuous
 62
     7
370
    25
100
AcDbPolyline
 90
        5
 70
   128
 43
0.0
 10
75.0682866382
 20
319.2420872795
 10
75.1496236226
 20
331.0902935788
 10
75.1952200495
 20
338.9526351591
 10
75.235168664
 20
346.9482982595
 10
75.2693808676
 20
355.0595396859
  0
ARC
  5
2A4
330
1F
100
AcDbEntity
  8
0
  6
Continuous
 62
     7
370
    25
100
AcDbCircle
 10
197.3736674323
 20
396.012353671
 30
0.0
 40
40.95294676429034
100
AcDbArc
 50
268.8082456541
 51
269.8540962847
  0
LWPOLYLINE
  5
2A5
330
1F
100
AcDbEntity
  8
0
  6
Continuous
 62
     7
370
    25
100
AcDbPolyline
 90
        5
 70
   128
 43
0.0
 10
197.0682866382
 20
319.2420872795
 10
197.1496236226
 20
331.0902935788
 10
197.1952200495
 20
338.9526351591
 10
197.235168664
 20
346.9482982595
 10
197.2693808676
 20
355.0595396859
  0
LWPOLYLINE
  5
2A6
330
1F
100
AcDbEntity
  8
0
  6
Continuous
 62
     7
370
    25
100
AcDbPolyline
 90
        5
 70
   128
 43
0.0
 10
192.0306191324
 20
355.059539686
 10
192.0751610319
 20
344.7554494985
 10
192.1289569984
 20
334.6464423113
 10
192.1775919715
 20
326.8641904614
 10
192.2317133618
 20
319.2420872795
  0
ARC
  5
2A7
330
1F
100
AcDbEntity
  8
0
  6
Continuous
 62
     7
370
    25
100
AcDbCircle
 10
191.9259132623
 20
396.0482709161
 30
0.0
 40
40.98886496571339
100
AcDbArc
 50
270.1463619687
 51
271.1912961058
  0
LWPOLYLINE
  5
2A8
330
1F
100
AcDbEntity
  8
0
  6
Continuous
 62
     7
370
    25
100
AcDbPolyline
 90
        5
 70
   128
 43
0.0
 10
153.0306191324
 20
355.059539686
 10
153.0751610319
 20
344.7554494985
 10
153.1289569984
 20
334.6464423113
 10
153.1775919715
 20
326.8641904614
 10
153.2317133618
 20
319.2420872795
  0
ARC
  5
2A9
330
1F
100
AcDbEntity
  8
0
  6
Continuous
 62
     7
370
    25
100
AcDbCircle
 10
152.9259132623
 20
396.0482709173
 30
0.0
 40
40.98886496687451
100
AcDbArc
 50
270.1463619687
 51
271.1912961058
  0
LWPOLYLINE
  5
2AA
330
1F
100
AcDbEntity
  8
0
  6
Continuous
 62
     7
370
    25
100
AcDbPolyline
 90
        5
 70
   128
 43
0.0
 10
109.0306191324
 20
355.059539686
 10
109.0751610319
 20
344.7554494985
 10
109.1289569984
 20
334.6464423114
 10
109.1775919715
 20
326.8641904614
 10
109.2317133618
 20
319.2420872795
  0
ARC
  5
2AB
330
1F
100
AcDbEntity
  8
0
  6
Continuous
 62
     7
370
    25
100
AcDbCircle
 10
108.9259132623
 20
396.0482709159
 30
0.0
 40
40.98886496546878
100
AcDbArc
 50
270.1463619687
 51
271.1912961058
  0
LINE
  5
2AC
330
1F
100
AcDbEntity
  8
0
  6
Continuous
 62
     7
370
    25
100
AcDbLine
 10
65.7020605851
 20
319.5508134827
 30
0.0
 11
65.7020605851
 21
319.2420872795
 31
0.0
  0
LINE
  5
2AD
330
1F
100
AcDbEntity
  8
0
  6
Continuous
 62
     7
370
    25
100
AcDbLine
 10
65.7020605851
 20
319.5508134827
 30
0.0
 11
66.3218677065
 21
355.059539686
 31
0.0
  0
LINE
  5
2AE
330
1F
100
AcDbEntity
  8
0
  6
Continuous
 62
     7
370
    25
100
AcDbLine
 10
66.3218677065
 20
355.059539686
 30
0.0
 11
70.0306191324
 21
355.0595396859
 31
0.0
  0
LINE
  5
2AF
330
1F
100
AcDbEntity
  8
0
  6
Continuous
 62
     7
370
    25
100
AcDbLine
 10
197.2693808676
 20
355.0595396859
 30
0.0
 11
200.9781322935
 21
355.059539686
 31
0.0
  0
LINE
  5
2B0
330
1F
100
AcDbEntity
  8
0
  6
Continuous
 62
     7
370
    25
100
AcDbLine
 10
200.9781322935
 20
355.059539686
 30
0.0
 11
201.5979394149
 21
319.5508134827
 31
0.0
  0
LINE
  5
2B1
330
1F
100
AcDbEntity
  8
0
  6
Continuous
 62
     7
370
    25
100
AcDbLine
 10
201.5979394149
 20
319.5508134827
 30
0.0
 11
201.5979394149
 21
319.2420872795
 31
0.0
  0
LINE
  5
2B2
330
1F
100
AcDbEntity
  8
0
  6
Continuous
 62
     7
370
    25
100
AcDbLine
 10
158.2693808676
 20
355.0595396859
 30
0.0
 11
192.0306191324
 21
355.059539686
 31
0.0
  0
LINE
  5
2B3
330
1F
100
AcDbEntity
  8
0
  6
Continuous
 62
     7
370
    25
100
AcDbLine
 10
75.2693808676
 20
355.0595396859
 30
0.0
 11
109.0306191324
 21
355.059539686
 31
0.0
  0
LINE
  5
2B4
330
1F
100
AcDbEntity
  8
0
  6
Continuous
 62
     7
370
    25
100
AcDbLine
 10
114.2693808676
 20
355.0595396859
 30
0.0
 11
153.0306191324
 21
355.059539686
 31
0.0
  0
LINE
  5
2B5
330
1F
100
AcDbEntity
  8
0
  6
Continuous
 62
     7
370
    25
100
AcDbLine
 10
63.7023651948
 20
319.5508134827
 30
0.0
 11
63.6969763589
 21
319.2420872795
 31
0.0
  0
LWPOLYLINE
  5
2B6
330
1F
100
AcDbEntity
  8
0
  6
Continuous
 62
     7
370
    25
100
AcDbPolyline
 90
        7
 70
   128
 43
0.0
 10
63.7023651948
 20
319.5508134827
 10
63.7439938729
 20
319.5508469183
 10
63.862901509
 20
319.5508710873
 10
64.2880254725
 20
319.5508134827
 10
64.9169319657
 20
319.5508708708
 10
65.2960929656
 20
319.5508468414
 10
65.7020605851
 20
319.5508134827
  0
LWPOLYLINE
  5
2B7
330
1F
100
AcDbEntity
  8
0
  6
Continuous
 62
     7
370
    25
100
AcDbPolyline
 90
        7
 70
   128
 43
0.0
 10
201.5979394149
 20
319.5508134827
 10
202.0038877623
 20
319.5508469183
 10
202.3830438976
 20
319.5508710873
 10
203.0119745275
 20
319.5508134827
 10
203.4370881941
 20
319.5508708708
 10
203.5560021339
 20
319.5508468414
 10
203.5976348052
 20
319.5508134827
  0
LINE
  5
2B8
330
1F
100
AcDbEntity
  8
0
  6
Continuous
 62
     7
370
    25
100
AcDbLine
 10
203.5976348052
 20
319.5508134827
 30
0.0
 11
203.6030236411
 21
319.2420872795
 31
0.0
  0
LINE
  5
2B9
330
1F
100
AcDbEntity
  8
0
  6
Continuous
 62
     7
370
    25
100
AcDbLine
 10
202.940634138
 20
355.060269746
 30
0.0
 11
202.9778276838
 21
355.059539686
 31
0.0
  0
LINE
  5
2BA
330
1F
100
AcDbEntity
  8
0
  6
Continuous
 62
     7
370
    25
100
AcDbLine
 10
203.5976348052
 20
319.5508134827
 30
0.0
 11
202.9778276838
 21
355.059539686
 31
0.0
  0
LINE
  5
2BB
330
1F
100
AcDbEntity
  8
0
  6
Continuous
 62
     7
370
    25
100
AcDbLine
 10
64.3221723162
 20
355.059539686
 30
0.0
 11
63.7023651948
 21
319.5508134827
 31
0.0
  0
ARC
  5
2BC
330
1F
100
AcDbEntity
  8
0
  6
Continuous
 62
     7
370
    25
100
AcDbCircle
 10
65.3220200114
 20
253.6345956389
 30
0.0
 40
101.4298721795674
100
AcDbArc
 50
89.4351961639
 51
90.5648038361
  0
LWPOLYLINE
  5
2BD
330
1F
100
AcDbEntity
  8
0
  6
Continuous
 62
     7
370
    25
100
AcDbPolyline
 90
        7
 70
   128
 43
0.0
 10
69.2582704696
 20
355.5508134827
 10
69.4498622987
 20
355.513492483
 10
69.6966901007
 20
355.4108582118
 10
69.9263178947
 20
355.2554167011
 10
70.0040003111
 20
355.1564836422
 10
70.0236926711
 20
355.1074697846
 10
70.0306191324
 20
355.0595396859
  0
LINE
  5
2BE
330
1F
100
AcDbEntity
  8
0
  6
Continuous
 62
     7
370
    25
100
AcDbLine
 10
70.7284835249
 20
355.5508134827
 30
0.0
 11
69.2582704696
 21
355.5508134827
 31
0.0
  0
LWPOLYLINE
  5
2BF
330
1F
100
AcDbEntity
  8
0
  6
Continuous
 62
     7
370
    25
100
AcDbPolyline
 90
        7
 70
   128
 43
0.0
 10
191.2582704696
 20
355.5508134827
 10
191.4498622987
 20
355.513492483
 10
191.6966901007
 20
355.4108582118
 10
191.9263178947
 20
355.2554167011
 10
192.0040003111
 20
355.1564836422
 10
192.0236926711
 20
355.1074697846
 10
192.0306191324
 20
355.059539686
  0
LINE
  5
2C0
330
1F
100
AcDbEntity
  8
0
  6
Continuous
 62
     7
370
    25
100
AcDbLine
 10
192.7284835249
 20
355.5508134827
 30
0.0
 11
191.2582704696
 21
355.5508134827
 31
0.0
  0
LWPOLYLINE
  5
2C1
330
1F
100
AcDbEntity
  8
0
  6
Continuous
 62
     7
370
    25
100
AcDbPolyline
 90
        7
 70
   128
 43
0.0
 10
152.2582704696
 20
355.5508134827
 10
152.4498622987
 20
355.513492483
 10
152.6966901007
 20
355.4108582118
 10
152.9263178947
 20
355.2554167011
 10
153.0040003111
 20
355.1564836422
 10
153.0236926711
 20
355.1074697846
 10
153.0306191324
 20
355.059539686
  0
LINE
  5
2C2
330
1F
100
AcDbEntity
  8
0
  6
Continuous
 62
     7
370
    25
100
AcDbLine
 10
153.7284835249
 20
355.5508134827
 30
0.0
 11
152.2582704696
 21
355.5508134827
 31
0.0
  0
LWPOLYLINE
  5
2C3
330
1F
100
AcDbEntity
  8
0
  6
Continuous
 62
     7
370
    25
100
AcDbPolyline
 90
        7
 70
   128
 43
0.0
 10
108.2582704696
 20
355.5508134827
 10
108.4498672819
 20
355.5134911277
 10
108.696691352
 20
355.4108575656
 10
108.9263178334
 20
355.2554167391
 10
109.0040002958
 20
355.1564836457
 10
109.0236926673
 20
355.1074697821
 10
109.0306191324
 20
355.059539686
  0
LINE
  5
2C4
330
1F
100
AcDbEntity
  8
0
  6
Continuous
 62
     7
370
    25
100
AcDbLine
 10
109.7284835249
 20
355.5508134827
 30
0.0
 11
108.2582704696
 21
355.5508134827
 31
0.0
  0
LWPOLYLINE
  5
2C5
330
1F
100
AcDbEntity
  8
0
  6
Continuous
 62
     7
370
    25
100
AcDbPolyline
 90
        7
 70
   128
 43
0.0
 10
75.2693808676
 20
355.0595396859
 10
75.2763074342
 20
355.1074788744
 10
75.2959998293
 20
355.1564955649
 10
75.3736821053
 20
355.2554167011
 10
75.6033098993
 20
355.4108582118
 10
75.8501377013
 20
355.513492483
 10
76.0417295304
 20
355.5508134827
  0
LINE
  5
2C6
330
1F
100
AcDbEntity
  8
0
  6
Continuous
 62
     7
370
    25
100
AcDbLine
 10
76.0417295304
 20
355.5508134827
 30
0.0
 11
74.5715164751
 21
355.5508134827
 31
0.0
  0
LWPOLYLINE
  5
2C7
330
1F
100
AcDbEntity
  8
0
  6
Continuous
 62
     7
370
    25
100
AcDbPolyline
 90
        7
 70
   128
 43
0.0
 10
197.2693808676
 20
355.0595396859
 10
197.2763074342
 20
355.1074788744
 10
197.2959998293
 20
355.1564955649
 10
197.3736821053
 20
355.2554167011
 10
197.6033098993
 20
355.4108582118
 10
197.8501377013
 20
355.513492483
 10
198.0417295304
 20
355.5508134827
  0
LINE
  5
2C8
330
1F
100
AcDbEntity
  8
0
  6
Continuous
 62
     7
370
    25
100
AcDbLine
 10
198.0417295304
 20
355.5508134827
 30
0.0
 11
196.5715164751
 21
355.5508134827
 31
0.0
  0
LWPOLYLINE
  5
2C9
330
1F
100
AcDbEntity
  8
0
  6
Continuous
 62
     7
370
    25
100
AcDbPolyline
 90
        7
 70
   128
 43
0.0
 10
114.2693808676
 20
355.0595396859
 10
114.2763074389
 20
355.107478859
 10
114.2959998487
 20
355.1564955507
 10
114.3736821839
 20
355.2554167347
 10
114.6033072613
 20
355.4108568495
 10
114.8501276166
 20
355.5134897505
 10
115.0417295304
 20
355.5508134827
  0
LINE
  5
2CA
330
1F
100
AcDbEntity
  8
0
  6
Continuous
 62
     7
370
    25
100
AcDbLine
 10
115.0417295304
 20
355.5508134827
 30
0.0
 11
113.5715164751
 21
355.5508134827
 31
0.0
  0
LWPOLYLINE
  5
2CB
330
1F
100
AcDbEntity
  8
0
  6
Continuous
 62
     7
370
    25
100
AcDbPolyline
 90
        7
 70
   128
 43
0.0
 10
158.2693808676
 20
355.0595396859
 10
158.2763074389
 20
355.107478859
 10
158.2959998487
 20
355.1564955507
 10
158.3736821839
 20
355.2554167346
 10
158.6033072593
 20
355.4108568485
 10
158.8501276097
 20
355.5134897486
 10
159.0417295304
 20
355.5508134827
  0
LINE
  5
2CC
330
1F
100
AcDbEntity
  8
0
  6
Continuous
 62
     7
370
    25
100
AcDbLine
 10
159.0417295304
 20
355.5508134827
 30
0.0
 11
157.5715164751
 21
355.5508134827
 31
0.0
  0
LINE
  5
2CD
330
1F
100
AcDbEntity
  8
0
  6
Continuous
 62
     7
370
    25
100
AcDbLine
 10
200.9781322935
 20
355.5508134827
 30
0.0
 11
200.9781322935
 21
355.059539686
 31
0.0
  0
LINE
  5
2CE
330
1F
100
AcDbEntity
  8
0
  6
Continuous
 62
     7
370
    25
100
AcDbLine
 10
200.9781322935
 20
355.5508134827
 30
0.0
 11
198.0417295304
 21
355.5508134827
 31
0.0
  0
LINE
  5
2CF
330
1F
100
AcDbEntity
  8
0
  6
Continuous
 62
     7
370
    25
100
AcDbLine
 10
66.3218677065
 20
355.059539686
 30
0.0
 11
66.3218677065
 21
355.5508134827
 31
0.0
  0
LINE
  5
2D0
330
1F
100
AcDbEntity
  8
0
  6
Continuous
 62
     7
370
    25
100
AcDbLine
 10
69.2582704696
 20
355.5508134827
 30
0.0
 11
66.3218677065
 21
355.5508134827
 31
0.0
  0
LINE
  5
2D1
330
1F
100
AcDbEntity
  8
0
  6
Continuous
 62
     7
370
    25
100
AcDbLine
 10
108.2582704696
 20
355.5508134827
 30
0.0
 11
76.0417295304
 21
355.5508134827
 31
0.0
  0
LINE
  5
2D2
330
1F
100
AcDbEntity
  8
0
  6
Continuous
 62
     7
370
    25
100
AcDbLine
 10
191.2582704696
 20
355.5508134827
 30
0.0
 11
159.0417295304
 21
355.5508134827
 31
0.0
  0
LINE
  5
2D3
330
1F
100
AcDbEntity
  8
0
  6
Continuous
 62
     7
370
    25
100
AcDbLine
 10
152.2582704696
 20
355.5508134827
 30
0.0
 11
115.0417295304
 21
355.5508134827
 31
0.0
  0
ARC
  5
2D4
330
1F
100
AcDbEntity
  8
0
  6
Continuous
 62
     7
370
    25
100
AcDbCircle
 10
202.4779038363
 20
355.0508134827
 30
0.0
 40
0.5000000000000048
100
AcDbArc
 50
1.0
 51
90.0
  0
LINE
  5
2D5
330
1F
100
AcDbEntity
  8
0
  6
Continuous
 62
     7
370
    25
100
AcDbLine
 10
202.4779038363
 20
355.5508134827
 30
0.0
 11
200.9781322935
 21
355.5508134827
 31
0.0
  0
ARC
  5
2D6
330
1F
100
AcDbEntity
  8
0
  6
Continuous
 62
     7
370
    25
100
AcDbCircle
 10
64.8220961638
 20
355.0508134827
 30
0.0
 40
0.5
100
AcDbArc
 50
90.0
 51
134.9264321001
  0
LWPOLYLINE
  5
2D7
330
1F
100
AcDbEntity
  8
0
  6
Continuous
 62
     7
370
    25
100
AcDbPolyline
 90
        3
 70
   128
 43
0.0
 10
64.3616958229
 20
355.2458302156
 10
64.3332503236
 20
355.1558360734
 10
64.3221723162
 20
355.059539686
  0
LINE
  5
2D8
330
1F
100
AcDbEntity
  8
0
  6
Continuous
 62
     7
370
    25
100
AcDbLine
 10
66.3218677065
 20
355.5508134827
 30
0.0
 11
64.8220961638
 21
355.5508134827
 31
0.0
  0
ARC
  5
2D9
330
1F
100
AcDbEntity
  8
0
  6
Continuous
 62
     7
370
    25
100
AcDbCircle
 10
64.7195471094
 20
355.9801143632
 30
0.0
 40
0.4413791505394157
100
AcDbArc
 50
283.4347461268
 51
8.6438614286
  0
ARC
  5
2DA
330
1F
100
AcDbEntity
  8
0
  6
Continuous
 62
     7
370
    25
100
AcDbCircle
 10
202.5804528907
 20
355.9801143632
 30
0.0
 40
0.4413791505393744
100
AcDbArc
 50
171.3561385714
 51
256.5652538732
  0
ARC
  5
2DB
330
1F
100
AcDbEntity
  8
0
  6
Continuous
 62
     7
370
    25
100
AcDbCircle
 10
65.2741258145
 20
355.1004924065
 30
0.0
 40
0.9533155127800975
100
AcDbArc
 50
97.1231187714
 51
182.1996446092
  0
LWPOLYLINE
  5
2DC
330
1F
100
AcDbEntity
  8
0
  6
Continuous
 62
     7
370
    25
100
AcDbPolyline
 90
       11
 70
   128
 43
0.0
 10
64.3215127479
 20
355.0639026214
 10
64.3155925466
 20
354.6939348785
 10
64.3141112983
 20
354.6013795804
 10
64.3137409244
 20
354.5782374865
 10
64.3136483575
 20
354.572453368
 10
64.3136175314
 20
354.5705268924
 10
64.3136484377
 20
354.572457608
 10
64.3137410676
 20
354.5782450633
 10
64.3141114648
 20
354.6013883857
 10
64.3155925684
 20
354.6939360313
 10
64.3215127479
 20
355.0639026214
  0
LWPOLYLINE
  5
2DD
330
1F
100
AcDbEntity
  8
0
  6
Continuous
 62
     7
370
    25
100
AcDbPolyline
 90
       11
 70
   128
 43
0.0
 10
202.9784872521
 20
355.0639026214
 10
202.9844074534
 20
354.6939348785
 10
202.9858887017
 20
354.6013795804
 10
202.9862590756
 20
354.5782374865
 10
202.9863516425
 20
354.572453368
 10
202.9863824686
 20
354.5705268924
 10
202.9863515624
 20
354.572457608
 10
202.9862589324
 20
354.5782450633
 10
202.9858885353
 20
354.6013883858
 10
202.9844074316
 20
354.6939360313
 10
202.9784872521
 20
355.0639026214
  0
ARC
  5
2DE
330
1F
100
AcDbEntity
  8
0
  6
Continuous
 62
     7
370
    25
100
AcDbCircle
 10
202.0008266747
 20
355.0792215315
 30
0.0
 40
0.9777805855935648
100
AcDbArc
 50
359.1023090258
 51
81.5749275936
  0
LINE
  5
2DF
330
1F
100
AcDbEntity
  8
0
  6
Continuous
 62
     7
370
    25
100
AcDbLine
 10
198.0825500973
 20
369.5508134827
 30
0.0
 11
202.8731052703
 21
369.5508134827
 31
0.0
  0
LINE
  5
2E0
330
1F
100
AcDbEntity
  8
0
  6
Continuous
 62
     7
370
    25
100
AcDbLine
 10
69.2174499027
 20
369.5508134827
 30
0.0
 11
64.4268947297
 21
369.5508134827
 31
0.0
  0
ARC
  5
2E1
330
1F
100
AcDbEntity
  8
0
  6
Continuous
 62
     7
370
    25
100
AcDbCircle
 10
64.3086559487
 20
355.0597276674
 30
0.0
 40
0.0135176745869663
100
AcDbArc
 50
359.2031993117
 51
17.9900298253
  0
LINE
  5
2E2
330
1F
100
AcDbEntity
  8
0
  6
Continuous
 62
     7
370
    25
100
AcDbLine
 10
202.986304868
 20
354.5738821278
 30
0.0
 11
202.9864395892
 21
354.5661639569
 31
0.0
  0
LINE
  5
2E3
330
1F
100
AcDbEntity
  8
0
  6
Continuous
 62
     7
370
    25
100
AcDbLine
 10
64.3138634641
 20
354.583525871
 30
0.0
 11
64.3135604108
 21
354.5661639569
 31
0.0
  0
LINE
  5
2E4
330
1F
100
AcDbEntity
  8
0
  6
Continuous
 62
     7
370
    25
100
AcDbLine
 10
63.4901419555
 20
367.3916588346
 30
0.0
 11
62.5136386111
 21
367.4743704924
 31
0.0
  0
ARC
  5
2E5
330
1F
100
AcDbEntity
  8
0
  6
Continuous
 62
     7
370
    25
100
AcDbCircle
 10
58.3672694523
 20
312.7161265065
 30
0.0
 40
0.4900000000000272
100
AcDbArc
 50
265.1584985611
 51
355.1584985611
  0
ARC
  5
2E6
330
1F
100
AcDbEntity
  8
0
  6
Continuous
 62
     7
370
    25
100
AcDbCircle
 10
58.3672694523
 20
312.7161265065
 30
0.0
 40
0.490000000000026
100
AcDbArc
 50
175.1584985611
 51
265.1584985611
  0
ARC
  5
2E7
330
1F
100
AcDbEntity
  8
0
  6
Continuous
 62
     7
370
    25
100
AcDbCircle
 10
202.6521093972
 20
367.2951023517
 30
0.0
 40
0.4900000000000182
100
AcDbArc
 50
6.5643809996
 51
63.1913695245
  0
ARC
  5
2E8
330
1F
100
AcDbEntity
  8
0
  6
Continuous
 62
     7
370
    25
100
AcDbCircle
 10
208.9327305477
 20
312.7161265065
 30
0.0
 40
0.48999999999999
100
AcDbArc
 50
186.5643809996
 51
276.5643809996
  0
ARC
  5
2E9
330
1F
100
AcDbEntity
  8
0
  6
Continuous
 62
     7
370
    25
100
AcDbCircle
 10
208.9327305477
 20
312.7161265065
 30
0.0
 40
0.4900000000000182
100
AcDbArc
 50
276.5643809996
 51
6.5643809996
  0
ARC
  5
2EA
330
1F
100
AcDbEntity
  8
0
  6
Continuous
 62
     7
370
    25
100
AcDbCircle
 10
214.2949073852
 20
366.1068593337
 30
0.0
 40
10.95267123481274
100
AcDbArc
 50
184.0063081404
 51
189.251438069
  0
LINE
  5
2EB
330
1F
100
AcDbEntity
  8
0
  6
Continuous
 62
     7
370
    25
100
AcDbLine
 10
196.635547778
 20
366.7839813506
 30
0.0
 11
197.6120511033
 21
366.8666930067
 31
0.0
  0
LINE
  5
2EC
330
1F
100
AcDbEntity
  8
0
  6
Continuous
 62
     7
370
    25
100
AcDbLine
 10
197.6039973683
 20
363.9553792737
 30
0.0
 11
196.6274941079
 21
363.8726676231
 31
0.0
  0
LINE
  5
2ED
330
1F
100
AcDbEntity
  8
0
  6
Continuous
 62
     7
370
    25
100
AcDbLine
 10
197.1444897799
 20
363.0795436464
 30
0.0
 11
196.5846077431
 21
363.8838644743
 31
0.0
  0
LINE
  5
2EE
330
1F
100
AcDbEntity
  8
0
  6
Continuous
 62
     7
370
    25
100
AcDbLine
 10
193.1446023697
 20
360.7849374182
 30
0.0
 11
192.5847203488
 21
361.5892582233
 31
0.0
  0
ARC
  5
2EF
330
1F
100
AcDbEntity
  8
0
  6
Continuous
 62
     7
370
    25
100
AcDbCircle
 10
64.6478906028
 20
367.2951023517
 30
0.0
 40
0.4900000000000147
100
AcDbArc
 50
116.8086304724
 51
242.3997470218
  0
LINE
  5
2F0
330
1F
100
AcDbEntity
  8
0
  6
Continuous
 62
     7
370
    25
100
AcDbLine
 10
70.6725058921
 20
363.8726676231
 30
0.0
 11
69.6960025477
 21
363.9553792808
 31
0.0
  0
LINE
  5
2F1
330
1F
100
AcDbEntity
  8
0
  6
Continuous
 62
     7
370
    25
100
AcDbLine
 10
70.7153922569
 20
363.8838644743
 30
0.0
 11
70.1555101879
 21
363.0795436001
 31
0.0
  0
LINE
  5
2F2
330
1F
100
AcDbEntity
  8
0
  6
Continuous
 62
     7
370
    25
100
AcDbLine
 10
74.7152796512
 20
361.5892582233
 30
0.0
 11
74.1553975821
 21
360.784937349
 31
0.0
  0
ARC
  5
2F3
330
1F
100
AcDbEntity
  8
0
  6
Continuous
 62
     7
370
    25
100
AcDbCircle
 10
201.999295032
 20
247.7714463807
 30
0.0
 40
107.2929528832683
100
AcDbArc
 50
89.4973066881
 51
90.5453219143
  0
LINE
  5
2F4
330
1F
100
AcDbEntity
  8
0
  6
Continuous
 62
     7
370
    25
100
AcDbLine
 10
69.31784696
 20
356.046450215
 30
0.0
 11
65.1559129069
 21
356.046450215
 31
0.0
  0
LINE
  5
2F5
330
1F
100
AcDbEntity
  8
0
  6
Continuous
 62
     7
370
    25
100
AcDbLine
 10
202.1440870931
 20
356.046450215
 30
0.0
 11
197.9821530401
 21
356.046450215
 31
0.0
  0
LINE
  5
2F6
330
1F
100
AcDbEntity
  8
0
  6
Continuous
 62
     7
370
    25
100
AcDbLine
 10
69.2174499027
 20
367.5508134827
 30
0.0
 11
64.4268947297
 21
367.5508134827
 31
0.0
  0
LINE
  5
2F7
330
1F
100
AcDbEntity
  8
0
  6
Continuous
 62
     7
370
    25
100
AcDbLine
 10
202.8731052703
 20
367.5508134827
 30
0.0
 11
198.0825500973
 21
367.5508134827
 31
0.0
  0
INSERT
  5
303
330
1F
100
AcDbEntity
  8
0
  6
Continuous
 62
     7
370
    18
100
AcDbBlockReference
  2
SW_CENTERMARKSYMBOL_0
 10
64.7026196453
 20
367.7707010255
 30
0.0
  0
INSERT
  5
30F
330
1F
100
AcDbEntity
  8
0
  6
Continuous
 62
     7
370
    18
100
AcDbBlockReference
  2
SW_CENTERMARKSYMBOL_1
 10
58.3672694523
 20
312.7161265065
 30
0.0
  0
INSERT
  5
31B
330
1F
100
AcDbEntity
  8
0
  6
Continuous
 62
     7
370
    18
100
AcDbBlockReference
  2
SW_CENTERMARKSYMBOL_2
 10
202.5973803547
 20
367.7707010255
 30
0.0
  0
INSERT
  5
327
330
1F
100
AcDbEntity
  8
0
  6
Continuous
 62
     7
370
    18
100
AcDbBlockReference
  2
SW_CENTERMARKSYMBOL_3
 10
208.9740863604
 20
312.2278748329
 30
0.0
  0
LINE
  5
328
330
1F
100
AcDbEntity
  8
0
  6
Continuous
 62
     7
370
    25
100
AcDbLine
 10
380.9047636578
 20
173.254346886
 30
0.0
 11
325.3522160722
 21
174.5399982366
 31
0.0
  0
LINE
  5
329
330
1F
100
AcDbEntity
  8
0
  6
Continuous
 62
     7
370
    25
100
AcDbLine
 10
326.3288537792
 20
173.5371335247
 30
0.0
 11
376.9056194544
 21
172.3666365822
 31
0.0
  0
LINE
  5
32A
330
1F
100
AcDbEntity
  8
0
  6
Continuous
 62
     7
370
    25
100
AcDbLine
 10
325.3506021056
 20
159.6415749284
 30
0.0
 11
380.5557419362
 21
159.6415749284
 31
0.0
  0
LINE
  5
32B
330
1F
100
AcDbEntity
  8
0
  6
Continuous
 62
     7
370
    25
100
AcDbLine
 10
380.5557419362
 20
160.6215749284
 30
0.0
 11
326.3288537792
 21
160.6215749284
 31
0.0
  0
LINE
  5
32C
330
1F
100
AcDbEntity
  8
0
  6
Continuous
 62
     7
370
    25
100
AcDbLine
 10
325.3488537792
 20
174.5367128568
 30
0.0
 11
325.3488537792
 21
159.6433232548
 31
0.0
  0
LINE
  5
32D
330
1F
100
AcDbEntity
  8
0
  6
Continuous
 62
     7
370
    25
100
AcDbLine
 10
326.3288537792
 20
160.6198266019
 30
0.0
 11
326.3288537792
 21
173.540496718
 31
0.0
  0
ARC
  5
32E
330
1F
100
AcDbEntity
  8
0
  6
Continuous
 62
     7
370
    25
100
AcDbCircle
 10
330.1724640146
 20
190.7893279306
 30
0.0
 40
0.4990479766298246
100
AcDbArc
 50
95.3283527614
 51
169.7994959849
  0
LINE
  5
32F
330
1F
100
AcDbEntity
  8
0
  6
Continuous
 62
     7
370
    25
100
AcDbLine
 10
329.6735532079
 20
190.786934347
 30
0.0
 11
329.6811911605
 21
190.8651985406
 31
0.0
  0
LINE
  5
330
330
1F
100
AcDbEntity
  8
0
  6
Continuous
 62
     7
370
    25
100
AcDbLine
 10
329.6905497542
 20
190.9142764928
 30
0.0
 11
329.6754962413
 21
190.8358655515
 31
0.0
  0
LINE
  5
331
330
1F
100
AcDbEntity
  8
0
  6
Continuous
 62
     7
370
    25
100
AcDbLine
 10
329.6754962413
 20
145.16413445
 30
0.0
 11
329.6905497534
 21
145.0857235304
 31
0.0
  0
ARC
  5
332
330
1F
100
AcDbEntity
  8
0
  6
Continuous
 62
     7
370
    25
100
AcDbCircle
 10
330.1724640089
 20
145.2106720825
 30
0.0
 40
0.4990479717628699
100
AcDbArc
 50
190.2005045345
 51
264.6716470474
  0
LINE
  5
333
330
1F
100
AcDbEntity
  8
0
  6
Continuous
 62
     7
370
    25
100
AcDbLine
 10
329.6811911603
 20
145.1348014906
 30
0.0
 11
329.6735532079
 21
145.213065659
 31
0.0
  0
LWPOLYLINE
  5
334
330
1F
100
AcDbEntity
  8
0
  6
Continuous
 62
     7
370
    25
100
AcDbPolyline
 90
       28
 70
   128
 43
0.0
 10
377.0036093257
 20
170.1082984795
 10
377.0027322821
 20
170.1014745467
 10
377.1440592637
 20
170.1150911886
 10
377.4597813603
 20
170.1604643915
 10
377.9089628214
 20
170.2137495832
 10
378.4583971743
 20
170.2672954263
 10
379.1017125278
 20
170.3236100428
 10
379.8224966328
 20
170.3835520125
 10
380.5661380771
 20
170.4423670712
 10
381.2982234923
 20
170.5012671119
 10
381.9955010163
 20
170.5621970878
 10
382.6141535016
 20
170.6213650719
 10
383.1037321956
 20
170.6764125332
 10
383.5576096066
 20
170.7443288201
 10
383.8361690025
 20
170.8056517524
 10
384.0511831688
 20
170.8891442418
 10
384.2281838966
 20
171.0356540991
 10
384.3037764481
 20
171.1635687905
 10
384.341892753
 20
171.3539565019
 10
384.3001723391
 20
171.5588744541
 10
384.2108312486
 20
171.6982115887
 10
384.0047576635
 20
171.8426229215
 10
383.6453403934
 20
171.947140377
 10
383.3456815315
 20
172.0000002781
 10
382.9308209966
 20
172.0564531588
 10
382.3853446924
 20
172.1158268998
 10
381.7050639493
 20
172.1776877164
 10
380.9078296244
 20
172.2450099253
  0
LWPOLYLINE
  5
335
330
1F
100
AcDbEntity
  8
0
  6
Continuous
 62
     7
370
    25
100
AcDbPolyline
 90
       28
 70
   128
 43
0.0
 10
377.0036093257
 20
168.3082984795
 10
377.0027322821
 20
168.3014745467
 10
377.1440592637
 20
168.3150911886
 10
377.4597813603
 20
168.3604643915
 10
377.9089628214
 20
168.4137495832
 10
378.4583971743
 20
168.4672954263
 10
379.1017125278
 20
168.5236100428
 10
379.8224966328
 20
168.5835520125
 10
380.5661380771
 20
168.6423670712
 10
381.2982234923
 20
168.7012671119
 10
381.9955010163
 20
168.7621970878
 10
382.6141535016
 20
168.8213650719
 10
383.1037321956
 20
168.8764125332
 10
383.5576096066
 20
168.9443288201
 10
383.8361690025
 20
169.0056517524
 10
384.0511831688
 20
169.0891442418
 10
384.2281838966
 20
169.2356540991
 10
384.3037764481
 20
169.3635687905
 10
384.341892753
 20
169.5539565019
 10
384.3001723391
 20
169.7588744541
 10
384.2108312486
 20
169.8982115887
 10
384.0047576635
 20
170.0426229215
 10
383.6453403934
 20
170.147140377
 10
383.3456815315
 20
170.2000002781
 10
382.9308209966
 20
170.2564531588
 10
382.3853446924
 20
170.3158268998
 10
381.7050639493
 20
170.3776877164
 10
380.9078296244
 20
170.4450099253
  0
LWPOLYLINE
  5
336
330
1F
100
AcDbEntity
  8
0
  6
Continuous
 62
     7
370
    25
100
AcDbPolyline
 90
       29
 70
   128
 43
0.0
 10
377.0036093257
 20
166.5082984795
 10
377.0027322821
 20
166.5014745467
 10
377.1440592637
 20
166.5150911886
 10
377.4597813603
 20
166.5604643915
 10
377.9089628214
 20
166.6137495832
 10
378.4583971743
 20
166.6672954263
 10
379.1017125278
 20
166.7236100428
 10
379.8224966328
 20
166.7835520125
 10
380.5661380771
 20
166.8423670712
 10
381.2982234923
 20
166.9012671119
 10
381.9955010163
 20
166.9621970878
 10
382.6141535016
 20
167.0213650719
 10
383.1037321956
 20
167.0764125332
 10
383.5576096066
 20
167.1443288201
 10
383.8361690025
 20
167.2056517524
 10
384.0511831688
 20
167.2891442418
 10
384.2281838966
 20
167.4356540991
 10
384.3037764481
 20
167.5635687905
 10
384.341892753
 20
167.7539565019
 10
384.3001723391
 20
167.9588744541
 10
384.2108312486
 20
168.0982115887
 10
384.0047576635
 20
168.2426229215
 10
383.6453403934
 20
168.347140377
 10
383.3456815315
 20
168.4000002781
 10
382.9308209966
 20
168.4564531588
 10
382.3853446924
 20
168.5158268998
 10
381.7050639493
 20
168.5776877164
 10
380.8773137253
 20
168.6475868311
 10
380.7535324341
 20
168.657443912
  0
LWPOLYLINE
  5
337
330
1F
100
AcDbEntity
  8
0
  6
Continuous
 62
     7
370
    25
100
AcDbPolyline
 90
       29
 70
   128
 43
0.0
 10
377.0036093257
 20
164.7082984795
 10
377.0027322821
 20
164.7014745467
 10
377.1440592637
 20
164.7150911886
 10
377.4597813603
 20
164.7604643915
 10
377.9089628214
 20
164.8137495832
 10
378.4583971743
 20
164.8672954263
 10
379.1017125278
 20
164.9236100428
 10
379.8224966328
 20
164.9835520125
 10
380.5661380771
 20
165.0423670712
 10
381.2982234923
 20
165.1012671119
 10
381.9955010163
 20
165.1621970878
 10
382.6141535016
 20
165.2213650719
 10
383.1037321956
 20
165.2764125332
 10
383.5576096066
 20
165.3443288201
 10
383.8361690025
 20
165.4056517524
 10
384.0511831688
 20
165.4891442418
 10
384.2281838966
 20
165.6356540991
 10
384.3037764481
 20
165.7635687905
 10
384.341892753
 20
165.9539565019
 10
384.3001723391
 20
166.1588744541
 10
384.2108312486
 20
166.2982115887
 10
384.0047576635
 20
166.4426229215
 10
383.6453403934
 20
166.547140377
 10
383.3456815315
 20
166.6000002781
 10
382.9308209966
 20
166.6564531588
 10
382.3853446924
 20
166.7158268998
 10
381.7050639493
 20
166.7776877164
 10
380.8773137253
 20
166.8475868311
 10
380.7535324341
 20
166.857443912
  0
LWPOLYLINE
  5
338
330
1F
100
AcDbEntity
  8
0
  6
Continuous
 62
     7
370
    25
100
AcDbPolyline
 90
       29
 70
   128
 43
0.0
 10
377.0036093257
 20
162.9082984795
 10
377.0027322821
 20
162.9014745467
 10
377.1440592637
 20
162.9150911886
 10
377.4597813603
 20
162.9604643915
 10
377.9089628214
 20
163.0137495832
 10
378.4583971743
 20
163.0672954263
 10
379.1017125278
 20
163.1236100428
 10
379.8224966328
 20
163.1835520125
 10
380.5661380771
 20
163.2423670712
 10
381.2982234923
 20
163.3012671119
 10
381.9955010163
 20
163.3621970878
 10
382.6141535016
 20
163.4213650719
 10
383.1037321956
 20
163.4764125332
 10
383.5576096066
 20
163.5443288201
 10
383.8361690025
 20
163.6056517524
 10
384.0511831688
 20
163.6891442418
 10
384.2281838966
 20
163.8356540991
 10
384.3037764481
 20
163.9635687905
 10
384.341892753
 20
164.1539565019
 10
384.3001723391
 20
164.3588744541
 10
384.2108312486
 20
164.4982115887
 10
384.0047576635
 20
164.6426229215
 10
383.6453403934
 20
164.747140377
 10
383.3456815315
 20
164.8000002781
 10
382.9308209966
 20
164.8564531588
 10
382.3853446924
 20
164.9158268998
 10
381.7050639493
 20
164.9776877164
 10
380.8773137253
 20
165.0475868311
 10
380.7535324341
 20
165.057443912
  0
LINE
  5
339
330
1F
100
AcDbEntity
  8
0
  6
Continuous
 62
     7
370
    25
100
AcDbLine
 10
382.7905806292
 20
163.0717179745
 30
0.0
 11
382.6735407555
 21
163.0844574741
 31
0.0
  0
LWPOLYLINE
  5
33A
330
1F
100
AcDbEntity
  8
0
  6
Continuous
 62
     7
370
    25
100
AcDbPolyline
 90
       27
 70
   128
 43
0.0
 10
377.0036093257
 20
161.1082984795
 10
377.0027322821
 20
161.1014745467
 10
377.1440592637
 20
161.1150911886
 10
377.4597813603
 20
161.1604643915
 10
377.9089628214
 20
161.2137495832
 10
378.4583971743
 20
161.2672954263
 10
379.1017125278
 20
161.3236100428
 10
379.8224966328
 20
161.3835520125
 10
380.5661380771
 20
161.4423670712
 10
381.2982234923
 20
161.5012671119
 10
381.9955010163
 20
161.5621970878
 10
382.6141535016
 20
161.6213650719
 10
383.1037321956
 20
161.6764125332
 10
383.5576096066
 20
161.7443288201
 10
383.8361690025
 20
161.8056517524
 10
384.0511831688
 20
161.8891442418
 10
384.2281838966
 20
162.0356540991
 10
384.3037764481
 20
162.1635687905
 10
384.341892753
 20
162.3539565019
 10
384.3001723391
 20
162.5588744541
 10
384.2108312486
 20
162.6982115887
 10
384.0047576635
 20
162.8426229215
 10
383.6453403934
 20
162.947140377
 10
383.3456815315
 20
163.0000002781
 10
382.9308209966
 20
163.0564531588
 10
382.7905806292
 20
163.0717179745
 10
382.7905806292
 20
163.0717179745
  0
LINE
  5
33B
330
1F
100
AcDbEntity
  8
0
  6
Continuous
 62
     7
370
    25
100
AcDbLine
 10
382.7905806292
 20
161.2717179745
 30
0.0
 11
382.6735407555
 21
161.2844574741
 31
0.0
  0
LWPOLYLINE
  5
33C
330
1F
100
AcDbEntity
  8
0
  6
Continuous
 62
     7
370
    25
100
AcDbPolyline
 90
       19
 70
   128
 43
0.0
 10
380.5562020094
 20
159.641598249
 10
380.5661380771
 20
159.6423670712
 10
381.2982234923
 20
159.7012671119
 10
381.9955010163
 20
159.7621970878
 10
382.6141535016
 20
159.8213650719
 10
383.1037321956
 20
159.8764125332
 10
383.5576096066
 20
159.9443288201
 10
383.8361690025
 20
160.0056517524
 10
384.0511831688
 20
160.0891442418
 10
384.2281838966
 20
160.2356540991
 10
384.3037764481
 20
160.3635687905
 10
384.341892753
 20
160.5539565019
 10
384.3001723391
 20
160.7588744541
 10
384.2108312486
 20
160.8982115887
 10
384.0047576635
 20
161.0426229215
 10
383.6453403934
 20
161.147140377
 10
383.3456815315
 20
161.2000002781
 10
382.9308209966
 20
161.2564531588
 10
382.7905806292
 20
161.2717179745
  0
LWPOLYLINE
  5
33D
330
1F
100
AcDbEntity
  8
0
  6
Continuous
 62
     7
370
    25
100
AcDbPolyline
 90
       28
 70
   128
 43
0.0
 10
383.5289366301
 20
171.7246124212
 10
383.5134621389
 20
171.7289186093
 10
383.3366772771
 20
171.6965876625
 10
382.9937556353
 20
171.6468508779
 10
382.5301727608
 20
171.5948216628
 10
381.9523245771
 20
171.5391603137
 10
381.2734095825
 20
171.479465109
 10
380.5271198609
 20
171.4193712432
 10
379.7269755083
 20
171.3558446505
 10
378.906257365
 20
171.2872876687
 10
378.1346961688
 20
171.218474515
 10
377.5163672449
 20
171.1520290192
 10
376.9786764062
 20
171.0758147891
 10
376.6772263202
 20
171.0125395382
 10
376.4553395168
 20
170.9267415496
 10
376.2757299172
 20
170.7785820006
 10
376.1997818568
 20
170.6499666318
 10
376.1619313402
 20
170.4592831544
 10
376.2028408404
 20
170.2569373603
 10
376.2840116624
 20
170.1251367139
 10
376.4312584302
 20
170.0030658451
 10
376.5697223256
 20
169.9422864426
 10
376.8093175449
 20
169.8773119336
 10
377.2166379949
 20
169.8051474218
 10
377.6692063649
 20
169.7469172382
 10
378.2682246665
 20
169.68542205
 10
379.037789845
 20
169.6156593376
 10
379.7500827461
 20
169.5576792246
  0
LWPOLYLINE
  5
33E
330
1F
100
AcDbEntity
  8
0
  6
Continuous
 62
     7
370
    25
100
AcDbPolyline
 90
       28
 70
   128
 43
0.0
 10
383.5289366301
 20
169.9246124212
 10
383.5134621389
 20
169.9289186093
 10
383.3366772771
 20
169.8965876625
 10
382.9937556353
 20
169.8468508779
 10
382.5301727608
 20
169.7948216628
 10
381.9523245771
 20
169.7391603137
 10
381.2734095825
 20
169.679465109
 10
380.5271198609
 20
169.6193712432
 10
379.7269755083
 20
169.5558446505
 10
378.906257365
 20
169.4872876687
 10
378.1346961688
 20
169.418474515
 10
377.5163672449
 20
169.3520290192
 10
376.9786764062
 20
169.2758147891
 10
376.6772263202
 20
169.2125395382
 10
376.4553395168
 20
169.1267415496
 10
376.2757299172
 20
168.9785820006
 10
376.1997818568
 20
168.8499666318
 10
376.1619313402
 20
168.6592831544
 10
376.2028408404
 20
168.4569373603
 10
376.2840116624
 20
168.3251367139
 10
376.4312584302
 20
168.2030658451
 10
376.5697223256
 20
168.1422864426
 10
376.8093175449
 20
168.0773119336
 10
377.2166379949
 20
168.0051474218
 10
377.6692063649
 20
167.9469172382
 10
378.2682246665
 20
167.88542205
 10
379.037789845
 20
167.8156593376
 10
379.7500827461
 20
167.7576792246
  0
LWPOLYLINE
  5
33F
330
1F
100
AcDbEntity
  8
0
  6
Continuous
 62
     7
370
    25
100
AcDbPolyline
 90
       28
 70
   128
 43
0.0
 10
383.5289366301
 20
168.1246124212
 10
383.5134621389
 20
168.1289186093
 10
383.3366772771
 20
168.0965876625
 10
382.9937556353
 20
168.0468508779
 10
382.5301727608
 20
167.9948216628
 10
381.9523245771
 20
167.9391603137
 10
381.2734095825
 20
167.879465109
 10
380.5271198609
 20
167.8193712432
 10
379.7269755083
 20
167.7558446505
 10
378.906257365
 20
167.6872876687
 10
378.1346961688
 20
167.618474515
 10
377.5163672449
 20
167.5520290192
 10
376.9786764062
 20
167.4758147891
 10
376.6772263202
 20
167.4125395382
 10
376.4553395168
 20
167.3267415496
 10
376.2757299172
 20
167.1785820006
 10
376.1997818568
 20
167.0499666318
 10
376.1619313402
 20
166.8592831544
 10
376.2028408404
 20
166.6569373603
 10
376.2840116624
 20
166.5251367139
 10
376.4312584302
 20
166.4030658451
 10
376.5697223256
 20
166.3422864426
 10
376.8093175449
 20
166.2773119336
 10
377.2166379949
 20
166.2051474218
 10
377.6692063649
 20
166.1469172382
 10
378.2682246665
 20
166.08542205
 10
379.037789845
 20
166.0156593376
 10
379.7500827461
 20
165.9576792246
  0
LWPOLYLINE
  5
340
330
1F
100
AcDbEntity
  8
0
  6
Continuous
 62
     7
370
    25
100
AcDbPolyline
 90
       28
 70
   128
 43
0.0
 10
383.5289366301
 20
166.3246124212
 10
383.5134621389
 20
166.3289186093
 10
383.3366772771
 20
166.2965876625
 10
382.9937556353
 20
166.2468508779
 10
382.5301727608
 20
166.1948216628
 10
381.9523245771
 20
166.1391603137
 10
381.2734095825
 20
166.079465109
 10
380.5271198609
 20
166.0193712432
 10
379.7269755083
 20
165.9558446505
 10
378.906257365
 20
165.8872876687
 10
378.1346961688
 20
165.818474515
 10
377.5163672449
 20
165.7520290192
 10
376.9786764062
 20
165.6758147891
 10
376.6772263202
 20
165.6125395382
 10
376.4553395168
 20
165.5267415496
 10
376.2757299172
 20
165.3785820006
 10
376.1997818568
 20
165.2499666318
 10
376.1619313402
 20
165.0592831544
 10
376.2028408404
 20
164.8569373603
 10
376.2840116624
 20
164.7251367139
 10
376.4312584302
 20
164.6030658451
 10
376.5697223256
 20
164.5422864426
 10
376.8093175449
 20
164.4773119336
 10
377.2166379949
 20
164.4051474218
 10
377.6692063649
 20
164.3469172382
 10
378.2682246665
 20
164.28542205
 10
379.037789845
 20
164.2156593376
 10
379.7500827461
 20
164.1576792246
  0
LWPOLYLINE
  5
341
330
1F
100
AcDbEntity
  8
0
  6
Continuous
 62
     7
370
    25
100
AcDbPolyline
 90
       26
 70
   128
 43
0.0
 10
383.5289366301
 20
164.5246124212
 10
383.5134621389
 20
164.5289186093
 10
383.3366772771
 20
164.4965876625
 10
382.9937556353
 20
164.4468508779
 10
382.5301727608
 20
164.3948216628
 10
381.9523245771
 20
164.3391603137
 10
381.2734095825
 20
164.279465109
 10
380.5271198609
 20
164.2193712432
 10
379.7269755083
 20
164.1558446505
 10
378.906257365
 20
164.0872876687
 10
378.1346961688
 20
164.018474515
 10
377.5163672449
 20
163.9520290192
 10
376.9786764062
 20
163.8758147891
 10
376.6772263202
 20
163.8125395382
 10
376.4553395168
 20
163.7267415496
 10
376.2757299172
 20
163.5785820006
 10
376.1997818568
 20
163.4499666318
 10
376.1619313402
 20
163.2592831544
 10
376.2028408404
 20
163.0569373603
 10
376.2840116624
 20
162.9251367139
 10
376.4312584302
 20
162.8030658451
 10
376.5697223256
 20
162.7422864426
 10
376.8093175449
 20
162.6773119336
 10
377.2166379949
 20
162.6051474218
 10
377.6458890402
 20
162.5499173862
 10
377.6458890402
 20
162.5499173862
  0
LWPOLYLINE
  5
342
330
1F
100
AcDbEntity
  8
0
  6
Continuous
 62
     7
370
    25
100
AcDbPolyline
 90
       26
 70
   128
 43
0.0
 10
383.5289366301
 20
162.7246124212
 10
383.5134621389
 20
162.7289186093
 10
383.3366772771
 20
162.6965876625
 10
382.9937556353
 20
162.6468508779
 10
382.5301727608
 20
162.5948216628
 10
381.9523245771
 20
162.5391603137
 10
381.2734095825
 20
162.479465109
 10
380.5271198609
 20
162.4193712432
 10
379.7269755083
 20
162.3558446505
 10
378.906257365
 20
162.2872876687
 10
378.1346961688
 20
162.218474515
 10
377.5163672449
 20
162.1520290192
 10
376.9786764062
 20
162.0758147891
 10
376.6772263202
 20
162.0125395382
 10
376.4553395168
 20
161.9267415496
 10
376.2757299172
 20
161.7785820006
 10
376.1997818568
 20
161.6499666318
 10
376.1619313402
 20
161.4592831544
 10
376.2028408404
 20
161.2569373603
 10
376.2840116624
 20
161.1251367139
 10
376.4312584302
 20
161.0030658451
 10
376.5697223256
 20
160.9422864426
 10
376.8093175449
 20
160.8773119336
 10
377.2166379949
 20
160.8051474218
 10
377.6458890402
 20
160.7499173862
 10
377.6458890402
 20
160.7499173862
  0
ARC
  5
343
330
1F
100
AcDbEntity
  8
0
  6
Continuous
 62
     7
370
    25
100
AcDbCircle
 10
377.9326699065
 20
201.1060779646
 30
0.0
 40
40.56930335188916
100
AcDbArc
 50
273.7057799178
 51
277.9288557893
  0
LWPOLYLINE
  5
344
330
1F
100
AcDbEntity
  8
0
  6
Continuous
 62
     7
370
    25
100
AcDbPolyline
 90
       12
 70
   128
 43
0.0
 10
376.1865442417
 20
172.3832781235
 10
376.1619313402
 20
172.2592831544
 10
376.2028408404
 20
172.0569373603
 10
376.2840116624
 20
171.9251367139
 10
376.4312584302
 20
171.8030658451
 10
376.5697223256
 20
171.7422864426
 10
376.8093175449
 20
171.6773119336
 10
377.2166379949
 20
171.6051474218
 10
377.6692063649
 20
171.5469172382
 10
378.2682246665
 20
171.48542205
 10
379.037789845
 20
171.4156593376
 10
379.7500827461
 20
171.3576792246
  0
LWPOLYLINE
  5
345
330
1F
100
AcDbEntity
  8
0
  6
Continuous
 62
     7
370
    25
100
AcDbPolyline
 90
       12
 70
   128
 43
0.0
 10
383.5289366301
 20
173.5246124212
 10
383.5134621389
 20
173.5289186093
 10
383.3366772771
 20
173.4965876625
 10
382.9937556353
 20
173.4468508779
 10
382.5301727608
 20
173.3948216628
 10
381.9523245771
 20
173.3391603137
 10
381.2734095825
 20
173.279465109
 10
380.5271198609
 20
173.2193712432
 10
379.7269755083
 20
173.1558446505
 10
378.906257365
 20
173.0872876687
 10
378.1346961688
 20
173.018474515
 10
377.845388098
 20
172.9873855307
  0
LINE
  5
346
330
1F
100
AcDbEntity
  8
0
  6
Continuous
 62
     7
370
    25
100
AcDbLine
 10
382.7905806292
 20
173.8717179745
 30
0.0
 11
382.6735407555
 21
173.8844574741
 31
0.0
  0
LWPOLYLINE
  5
347
330
1F
100
AcDbEntity
  8
0
  6
Continuous
 62
     7
370
    25
100
AcDbPolyline
 90
       27
 70
   128
 43
0.0
 10
377.0036093257
 20
171.9082984795
 10
377.0027322821
 20
171.9014745467
 10
377.1440592637
 20
171.9150911886
 10
377.4597813603
 20
171.9604643915
 10
377.9089628214
 20
172.0137495832
 10
378.4583971743
 20
172.0672954263
 10
379.1017125278
 20
172.1236100428
 10
379.8224966328
 20
172.1835520125
 10
380.5661380771
 20
172.2423670712
 10
381.2982234923
 20
172.3012671119
 10
381.9955010163
 20
172.3621970878
 10
382.6141535016
 20
172.4213650719
 10
383.1037321956
 20
172.4764125332
 10
383.5576096066
 20
172.5443288201
 10
383.8361690025
 20
172.6056517524
 10
384.0511831688
 20
172.6891442418
 10
384.2281838966
 20
172.8356540991
 10
384.3037764481
 20
172.9635687905
 10
384.341892753
 20
173.1539565019
 10
384.3001723391
 20
173.3588744541
 10
384.2108312486
 20
173.4982115887
 10
384.0047576635
 20
173.6426229215
 10
383.6453403934
 20
173.747140377
 10
383.3456815315
 20
173.8000002781
 10
382.9308209966
 20
173.8564531588
 10
382.7905806292
 20
173.8717179745
 10
382.7905806292
 20
173.8717179745
  0
ARC
  5
348
330
1F
100
AcDbEntity
  8
0
  6
Continuous
 62
     7
370
    25
100
AcDbCircle
 10
332.3438992718
 20
186.9406035496
 30
0.0
 40
0.4703585991297372
100
AcDbArc
 50
179.9660041498
 51
225.9584836648
  0
ARC
  5
349
330
1F
100
AcDbEntity
  8
0
  6
Continuous
 62
     7
370
    25
100
AcDbCircle
 10
332.3958659101
 20
148.9659685336
 30
0.0
 40
0.5743073878710184
100
AcDbArc
 50
131.2875752016
 51
153.3487961806
  0
LINE
  5
34A
330
1F
100
AcDbEntity
  8
0
  6
Continuous
 62
     7
370
    25
100
AcDbLine
 10
369.1691774877
 20
152.5043253562
 30
0.0
 11
380.6735407555
 21
152.6047224135
 31
0.0
  0
LINE
  5
34B
330
1F
100
AcDbEntity
  8
0
  6
Continuous
 62
     7
370
    25
100
AcDbLine
 10
380.6735407555
 20
183.3952775865
 30
0.0
 11
369.1691774877
 21
183.4956746438
 31
0.0
  0
LINE
  5
34C
330
1F
100
AcDbEntity
  8
0
  6
Continuous
 62
     7
370
    25
100
AcDbLine
 10
380.9078296244
 20
169.6500273286
 30
0.0
 11
380.9078296244
 21
170.4698579154
 31
0.0
  0
LINE
  5
34D
330
1F
100
AcDbEntity
  8
0
  6
Continuous
 62
     7
370
    25
100
AcDbLine
 10
380.9078296244
 20
171.4500273286
 30
0.0
 11
380.9078296244
 21
172.2698579154
 31
0.0
  0
LINE
  5
34E
330
1F
100
AcDbEntity
  8
0
  6
Continuous
 62
     7
370
    25
100
AcDbLine
 10
379.9278296244
 20
172.1918828636
 30
0.0
 11
379.9278296244
 21
171.3717912451
 31
0.0
  0
LINE
  5
34F
330
1F
100
AcDbEntity
  8
0
  6
Continuous
 62
     7
370
    25
100
AcDbLine
 10
379.9278296244
 20
170.3918828636
 30
0.0
 11
379.9278296244
 21
169.5717912451
 31
0.0
  0
LWPOLYLINE
  5
350
330
1F
100
AcDbEntity
  8
0
  6
Continuous
 62
     7
370
    25
100
AcDbPolyline
 90
        3
 70
   128
 43
0.0
 10
368.1830790606
 20
150.1819608183
 10
368.3704957706
 20
150.2149240873
 10
368.5291306175
 20
150.3205910421
  0
LWPOLYLINE
  5
351
330
1F
100
AcDbEntity
  8
0
  6
Continuous
 62
     7
370
    25
100
AcDbPolyline
 90
        3
 70
   128
 43
0.0
 10
368.528864931
 20
185.6796775291
 10
368.3703169648
 20
185.7851906279
 10
368.1830798068
 20
185.8181767171
  0
LINE
  5
352
330
1F
100
AcDbEntity
  8
0
  6
Continuous
 62
     7
370
    25
100
AcDbLine
 10
382.6735407555
 20
183.3952775865
 30
0.0
 11
380.6735407555
 21
183.3952775865
 31
0.0
  0
LINE
  5
353
330
1F
100
AcDbEntity
  8
0
  6
Continuous
 62
     7
370
    25
100
AcDbLine
 10
380.6735407555
 20
152.6047224135
 30
0.0
 11
382.6735407555
 21
152.6047224135
 31
0.0
  0
ARC
  5
354
330
1F
100
AcDbEntity
  8
0
  6
Continuous
 62
     7
370
    25
100
AcDbCircle
 10
369.1735407555
 20
152.0043443947
 30
0.0
 40
0.5000000000017621
100
AcDbArc
 50
90.5000000001
 51
179.9999999999
  0
ARC
  5
355
330
1F
100
AcDbEntity
  8
0
  6
Continuous
 62
     7
370
    25
100
AcDbCircle
 10
369.1735407555
 20
183.9956556053
 30
0.0
 40
0.4999999999999174
100
AcDbArc
 50
180.0
 51
269.5
  0
LINE
  5
356
330
1F
100
AcDbEntity
  8
0
  6
Continuous
 62
     7
370
    25
100
AcDbLine
 10
377.0367507247
 20
174.1215749284
 30
0.0
 11
376.6044313099
 21
174.1215749284
 31
0.0
  0
LINE
  5
357
330
1F
100
AcDbEntity
  8
0
  6
Continuous
 62
     7
370
    25
100
AcDbLine
 10
377.6735407555
 20
174.1215749284
 30
0.0
 11
377.0367507247
 21
174.1215749284
 31
0.0
  0
LINE
  5
358
330
1F
100
AcDbEntity
  8
0
  6
Continuous
 62
     7
370
    25
100
AcDbLine
 10
376.6044313099
 20
174.1215749284
 30
0.0
 11
374.3098250589
 21
174.1215749284
 31
0.0
  0
ARC
  5
359
330
1F
100
AcDbEntity
  8
0
  6
Continuous
 62
     7
370
    25
100
AcDbCircle
 10
332.3735407555
 20
148.18319566
 30
0.0
 40
0.4999999999994637
100
AcDbArc
 50
90.5
 51
180.0000000001
  0
ARC
  5
35A
330
1F
100
AcDbEntity
  8
0
  6
Continuous
 62
     7
370
    25
100
AcDbCircle
 10
332.3735407555
 20
187.81680434
 30
0.0
 40
0.5000000000002842
100
AcDbArc
 50
180.0
 51
269.5
  0
LINE
  5
35B
330
1F
100
AcDbEntity
  8
0
  6
Continuous
 62
     7
370
    25
100
AcDbLine
 10
332.3691774877
 20
148.6831766215
 30
0.0
 11
368.6735407555
 21
149.0
 31
0.0
  0
LINE
  5
35C
330
1F
100
AcDbEntity
  8
0
  6
Continuous
 62
     7
370
    25
100
AcDbLine
 10
368.6735407555
 20
187.0
 30
0.0
 11
332.3691774877
 21
187.3168233785
 31
0.0
  0
LINE
  5
35D
330
1F
100
AcDbEntity
  8
0
  6
Continuous
 62
     7
370
    25
100
AcDbLine
 10
376.3867069858
 20
161.0399999905
 30
0.0
 11
374.3098250589
 21
161.0399999905
 31
0.0
  0
LWPOLYLINE
  5
35E
330
1F
100
AcDbEntity
  8
0
  6
Continuous
 62
     7
370
    25
100
AcDbPolyline
 90
        9
 70
   128
 43
0.0
 10
377.3245019999
 20
164.3912689866
 10
377.018113092
 20
164.3492821089
 10
376.7190748978
 20
164.2893162869
 10
376.562957517
 20
164.2426054391
 10
376.4020251352
 20
164.1615955301
 10
376.231077569
 20
163.9810040598
 10
376.1712438758
 20
163.821744501
 10
376.1757411801
 20
163.6067181242
 10
376.2265270887
 20
163.4952587413
  0
ARC
  5
35F
330
1F
100
AcDbEntity
  8
0
  6
Continuous
 62
     7
370
    25
100
AcDbCircle
 10
381.4354381342
 20
177.8306953487
 30
0.0
 40
14.80731801170364
100
AcDbArc
 50
274.7913989761
 51
278.0080913931
  0
LWPOLYLINE
  5
360
330
1F
100
AcDbEntity
  8
0
  6
Continuous
 62
     7
370
    25
100
AcDbPolyline
 90
        9
 70
   128
 43
0.0
 10
377.3245019999
 20
166.1912689866
 10
377.018113092
 20
166.1492821089
 10
376.7190748978
 20
166.0893162869
 10
376.562957517
 20
166.0426054391
 10
376.4020251352
 20
165.9615955301
 10
376.231077569
 20
165.7810040598
 10
376.1712438758
 20
165.621744501
 10
376.1757411801
 20
165.4067181242
 10
376.2265270887
 20
165.2952587413
  0
ARC
  5
361
330
1F
100
AcDbEntity
  8
0
  6
Continuous
 62
     7
370
    25
100
AcDbCircle
 10
381.5053473436
 20
179.1739753325
 30
0.0
 40
14.34531357951616
100
AcDbArc
 50
274.8410970692
 51
277.9857228749
  0
LWPOLYLINE
  5
362
330
1F
100
AcDbEntity
  8
0
  6
Continuous
 62
     7
370
    25
100
AcDbPolyline
 90
        9
 70
   128
 43
0.0
 10
377.3245019999
 20
167.9912689866
 10
377.018113092
 20
167.9492821089
 10
376.7190748978
 20
167.8893162869
 10
376.562957517
 20
167.8426054391
 10
376.4020251352
 20
167.7615955301
 10
376.231077569
 20
167.5810040598
 10
376.1712438758
 20
167.421744501
 10
376.1757411801
 20
167.2067181242
 10
376.2265270887
 20
167.0952587413
  0
ARC
  5
363
330
1F
100
AcDbEntity
  8
0
  6
Continuous
 62
     7
370
    25
100
AcDbCircle
 10
381.5053473437
 20
180.9739753324
 30
0.0
 40
14.34531357945763
100
AcDbArc
 50
274.8410970692
 51
277.985722875
  0
LWPOLYLINE
  5
364
330
1F
100
AcDbEntity
  8
0
  6
Continuous
 62
     7
370
    25
100
AcDbPolyline
 90
        9
 70
   128
 43
0.0
 10
377.3245019999
 20
169.7912689866
 10
377.018113092
 20
169.7492821089
 10
376.7190748978
 20
169.6893162869
 10
376.562957517
 20
169.6426054391
 10
376.4020251352
 20
169.5615955301
 10
376.231077569
 20
169.3810040598
 10
376.1712438758
 20
169.221744501
 10
376.1757411801
 20
169.0067181242
 10
376.2265270887
 20
168.8952587413
  0
ARC
  5
365
330
1F
100
AcDbEntity
  8
0
  6
Continuous
 62
     7
370
    25
100
AcDbCircle
 10
381.5053473436
 20
182.7739753325
 30
0.0
 40
14.34531357951588
100
AcDbArc
 50
274.8410970692
 51
277.9857228749
  0
LWPOLYLINE
  5
366
330
1F
100
AcDbEntity
  8
0
  6
Continuous
 62
     7
370
    25
100
AcDbPolyline
 90
        9
 70
   128
 43
0.0
 10
377.3245019999
 20
171.5912689866
 10
377.018113092
 20
171.5492821089
 10
376.7190748978
 20
171.4893162869
 10
376.562957517
 20
171.4426054391
 10
376.4020251352
 20
171.3615955301
 10
376.231077569
 20
171.1810040598
 10
376.1712438758
 20
171.021744501
 10
376.1757411801
 20
170.8067181242
 10
376.2265270887
 20
170.6952587413
  0
ARC
  5
367
330
1F
100
AcDbEntity
  8
0
  6
Continuous
 62
     7
370
    25
100
AcDbCircle
 10
381.5053473437
 20
184.5739753322
 30
0.0
 40
14.3453135792478
100
AcDbArc
 50
274.8410970692
 51
277.985722875
  0
ARC
  5
368
330
1F
100
AcDbEntity
  8
0
  6
Continuous
 62
     7
370
    25
100
AcDbCircle
 10
381.5053473437
 20
186.3739753322
 30
0.0
 40
14.34531357922433
100
AcDbArc
 50
274.8410970692
 51
277.985722875
  0
ARC
  5
369
330
1F
100
AcDbEntity
  8
0
  6
Continuous
 62
     7
370
    25
100
AcDbCircle
 10
381.4354381342
 20
188.6306953488
 30
0.0
 40
14.80731801179845
100
AcDbArc
 50
274.7913989761
 51
278.0080913931
  0
LWPOLYLINE
  5
36A
330
1F
100
AcDbEntity
  8
0
  6
Continuous
 62
     7
370
    25
100
AcDbPolyline
 90
        8
 70
   128
 43
0.0
 10
384.2807222678
 20
162.5892089529
 10
384.3327096087
 20
162.728101316
 10
384.3280536478
 20
162.9423284081
 10
384.2531489322
 20
163.1121028177
 10
384.1571210487
 20
163.2190996425
 10
383.863962713
 20
163.3666553712
 10
383.445512014
 20
163.4563278546
 10
383.1995685035
 20
163.490753071
  0
LWPOLYLINE
  5
36B
330
1F
100
AcDbEntity
  8
0
  6
Continuous
 62
     7
370
    25
100
AcDbPolyline
 90
        8
 70
   128
 43
0.0
 10
384.2807222678
 20
164.3892089529
 10
384.3327096087
 20
164.528101316
 10
384.3280536478
 20
164.7423284081
 10
384.2531489322
 20
164.9121028177
 10
384.1571210487
 20
165.0190996425
 10
383.863962713
 20
165.1666553712
 10
383.445512014
 20
165.2563278546
 10
383.1995685035
 20
165.290753071
  0
LWPOLYLINE
  5
36C
330
1F
100
AcDbEntity
  8
0
  6
Continuous
 62
     7
370
    25
100
AcDbPolyline
 90
        8
 70
   128
 43
0.0
 10
384.2807222678
 20
166.1892089529
 10
384.3327096087
 20
166.328101316
 10
384.3280536478
 20
166.5423284081
 10
384.2531489322
 20
166.7121028177
 10
384.1571210487
 20
166.8190996425
 10
383.863962713
 20
166.9666553712
 10
383.445512014
 20
167.0563278546
 10
383.1995685035
 20
167.090753071
  0
LWPOLYLINE
  5
36D
330
1F
100
AcDbEntity
  8
0
  6
Continuous
 62
     7
370
    25
100
AcDbPolyline
 90
        8
 70
   128
 43
0.0
 10
384.2807222678
 20
167.9892089529
 10
384.3327096087
 20
168.128101316
 10
384.3280536478
 20
168.3423284081
 10
384.2531489322
 20
168.5121028177
 10
384.1571210487
 20
168.6190996425
 10
383.863962713
 20
168.7666553712
 10
383.445512014
 20
168.8563278546
 10
383.1995685035
 20
168.890753071
  0
LWPOLYLINE
  5
36E
330
1F
100
AcDbEntity
  8
0
  6
Continuous
 62
     7
370
    25
100
AcDbPolyline
 90
        8
 70
   128
 43
0.0
 10
384.2807222678
 20
169.7892089529
 10
384.3327096087
 20
169.928101316
 10
384.3280536478
 20
170.1423284081
 10
384.2531489322
 20
170.3121028177
 10
384.1571210487
 20
170.4190996425
 10
383.863962713
 20
170.5666553712
 10
383.445512014
 20
170.6563278546
 10
383.1995685035
 20
170.690753071
  0
LWPOLYLINE
  5
36F
330
1F
100
AcDbEntity
  8
0
  6
Continuous
 62
     7
370
    25
100
AcDbPolyline
 90
        8
 70
   128
 43
0.0
 10
384.2807222678
 20
171.5892089529
 10
384.3327096087
 20
171.728101316
 10
384.3280536478
 20
171.9423284081
 10
384.2531489322
 20
172.1121028177
 10
384.1571210487
 20
172.2190996425
 10
383.863962713
 20
172.3666553712
 10
383.445512014
 20
172.4563278546
 10
383.1995685035
 20
172.490753071
  0
LWPOLYLINE
  5
370
330
1F
100
AcDbEntity
  8
0
  6
Continuous
 62
     7
370
    25
100
AcDbPolyline
 90
        9
 70
   128
 43
0.0
 10
384.2807222678
 20
173.3892089529
 10
384.3327096087
 20
173.528101316
 10
384.3280536478
 20
173.7423284081
 10
384.2531489322
 20
173.9121028177
 10
384.1571210487
 20
174.0190996425
 10
383.863962713
 20
174.1666553712
 10
383.445512014
 20
174.2563278546
 10
383.0432394773
 20
174.3126347647
 10
382.6735407555
 20
174.3530485004
  0
LWPOLYLINE
  5
371
330
1F
100
AcDbEntity
  8
0
  6
Continuous
 62
     7
370
    25
100
AcDbPolyline
 90
        8
 70
   128
 43
0.0
 10
384.2807222678
 20
160.7892089529
 10
384.3327096087
 20
160.928101316
 10
384.3280536478
 20
161.1423284081
 10
384.2531489322
 20
161.3121028177
 10
384.1571210487
 20
161.4190996425
 10
383.863962713
 20
161.5666553712
 10
383.445512014
 20
161.6563278546
 10
383.1995685035
 20
161.690753071
  0
ARC
  5
372
330
1F
100
AcDbEntity
  8
0
  6
Continuous
 62
     7
370
    25
100
AcDbCircle
 10
381.4354381342
 20
176.0306953494
 30
0.0
 40
14.80731801236012
100
AcDbArc
 50
274.7913989761
 51
278.008091393
  0
LWPOLYLINE
  5
373
330
1F
100
AcDbEntity
  8
0
  6
Continuous
 62
     7
370
    25
100
AcDbPolyline
 90
        9
 70
   128
 43
0.0
 10
377.3245019999
 20
162.5912689866
 10
377.018113092
 20
162.5492821089
 10
376.7190748978
 20
162.4893162869
 10
376.562957517
 20
162.4426054391
 10
376.4020251352
 20
162.3615955301
 10
376.231077569
 20
162.1810040598
 10
376.1712438758
 20
162.021744501
 10
376.1757411801
 20
161.8067181242
 10
376.2265270887
 20
161.6952587413
  0
LWPOLYLINE
  5
374
330
1F
100
AcDbEntity
  8
0
  6
Continuous
 62
     7
370
    25
100
AcDbPolyline
 90
        3
 70
   128
 43
0.0
 10
376.9562827407
 20
160.7873059781
 10
376.9871860284
 20
160.6884986504
 10
376.9917171779
 20
160.6463712202
  0
LINE
  5
375
330
1F
100
AcDbEntity
  8
0
  6
Continuous
 62
     7
370
    25
100
AcDbLine
 10
331.8750480798
 20
149.2661337955
 30
0.0
 11
331.8796020205
 21
149.2206751741
 31
0.0
  0
LINE
  5
376
330
1F
100
AcDbEntity
  8
0
  6
Continuous
 62
     7
370
    25
100
AcDbLine
 10
376.1796510054
 20
161.7981372653
 30
0.0
 11
372.6735407555
 21
161.7169954352
 31
0.0
  0
LINE
  5
377
330
1F
100
AcDbEntity
  8
0
  6
Continuous
 62
     7
370
    25
100
AcDbLine
 10
329.6735407555
 20
160.7218474091
 30
0.0
 11
326.3288537792
 21
160.6444413942
 31
0.0
  0
LINE
  5
378
330
1F
100
AcDbEntity
  8
0
  6
Continuous
 62
     7
370
    25
100
AcDbLine
 10
372.6735407555
 20
160.7367330276
 30
0.0
 11
373.9489476632
 21
160.7662497408
 31
0.0
  0
LINE
  5
379
330
1F
100
AcDbEntity
  8
0
  6
Continuous
 62
     7
370
    25
100
AcDbLine
 10
380.9078296244
 20
165.0450099253
 30
0.0
 11
380.9078296244
 21
165.0698579154
 31
0.0
  0
LINE
  5
37A
330
1F
100
AcDbEntity
  8
0
  6
Continuous
 62
     7
370
    25
100
AcDbLine
 10
372.6735407555
 20
173.5599999905
 30
0.0
 11
373.9119781686
 21
173.5599999905
 31
0.0
  0
LINE
  5
37B
330
1F
100
AcDbEntity
  8
0
  6
Continuous
 62
     7
370
    25
100
AcDbLine
 10
377.6735407555
 20
174.5399999905
 30
0.0
 11
372.6735407555
 21
174.5399999905
 31
0.0
  0
LINE
  5
37C
330
1F
100
AcDbEntity
  8
0
  6
Continuous
 62
     7
370
    25
100
AcDbLine
 10
329.6735407555
 20
174.5399999905
 30
0.0
 11
325.3506021056
 21
174.5399999905
 31
0.0
  0
LINE
  5
37D
330
1F
100
AcDbEntity
  8
0
  6
Continuous
 62
     7
370
    25
100
AcDbLine
 10
325.3488537792
 20
174.5382516641
 30
0.0
 11
325.3488537792
 21
174.5367128568
 31
0.0
  0
ELLIPSE
  5
37E
330
1F
100
AcDbEntity
  8
0
  6
Continuous
 62
     7
370
    25
100
AcDbEllipse
 10
325.8388537792
 20
174.0386047874
 30
0.0
 11
-0.4891587045343613
 21
0.5006102718844545
 31
0.0
210
0.0
220
0.0
230
0.9999999999999999
 40
0.0573325241
 41
3.082985127545142
 42
6.227222771427073
  0
LWPOLYLINE
  5
37F
330
1F
100
AcDbEntity
  8
0
  6
Continuous
 62
     7
370
    25
100
AcDbPolyline
 90
        3
 70
   128
 43
0.0
 10
377.4687548057
 20
172.845031548
 10
377.6855129181
 20
172.9583640628
 10
377.8460932726
 20
172.982458736
  0
ARC
  5
380
330
1F
100
AcDbEntity
  8
0
  6
Continuous
 62
     7
370
    25
100
AcDbCircle
 10
375.6073024264
 20
174.4958077701
 30
0.0
 40
2.487984544984512
100
AcDbArc
 50
301.4592621446
 51
318.4326947594
  0
ELLIPSE
  5
381
330
1F
100
AcDbEntity
  8
0
  6
Continuous
 62
     7
370
    25
100
AcDbEllipse
 10
325.8388537792
 20
160.1315749284
 30
0.0
 11
0.489562723282745
 21
0.4895627232827734
 31
0.0
210
0.0
220
0.0
230
0.9999999999999998
 40
0.0422752281
 41
3.183842724013757
 42
6.325435377603212
  0
ARC
  5
382
330
1F
100
AcDbEntity
  8
0
  6
Continuous
 62
     7
370
    25
100
AcDbCircle
 10
378.6211572582
 20
160.1315749284
 30
0.0
 40
1.995674792272293
100
AcDbArc
 50
345.7867844721
 51
14.2132155279
  0
LINE
  5
383
330
1F
100
AcDbEntity
  8
0
  6
Continuous
 62
     7
370
    25
100
AcDbLine
 10
331.8735407555
 20
191.4424750598
 30
0.0
 11
330.1299628841
 21
191.289931762
 31
0.0
  0
LINE
  5
384
330
1F
100
AcDbEntity
  8
0
  6
Continuous
 62
     7
370
    25
100
AcDbLine
 10
331.8735407555
 20
190.6953290362
 30
0.0
 11
331.8735407555
 21
191.4424750598
 31
0.0
  0
LINE
  5
385
330
1F
100
AcDbEntity
  8
0
  6
Continuous
 62
     7
370
    25
100
AcDbLine
 10
330.1299628841
 20
190.5427857385
 30
0.0
 11
331.8735407555
 21
190.6953290362
 31
0.0
  0
ARC
  5
386
330
1F
100
AcDbEntity
  8
0
  6
Continuous
 62
     7
370
    25
100
AcDbCircle
 10
333.3083433
 20
190.9163587503
 30
0.0
 40
3.200259186896246
100
AcDbArc
 50
173.2964593206
 51
186.7035406794
  0
LINE
  5
387
330
1F
100
AcDbEntity
  8
0
  6
Continuous
 62
     7
370
    25
100
AcDbLine
 10
331.8735407555
 20
145.3046709638
 30
0.0
 11
331.8735407555
 21
159.6415749284
 31
0.0
  0
LINE
  5
388
330
1F
100
AcDbEntity
  8
0
  6
Continuous
 62
     7
370
    25
100
AcDbLine
 10
331.8735407555
 20
160.6215749284
 30
0.0
 11
331.8735407555
 21
173.4088129596
 31
0.0
  0
LINE
  5
389
330
1F
100
AcDbEntity
  8
0
  6
Continuous
 62
     7
370
    25
100
AcDbLine
 10
331.8735407555
 20
174.3890753672
 30
0.0
 11
331.8735407555
 21
190.6953290362
 31
0.0
  0
LINE
  5
38A
330
1F
100
AcDbEntity
  8
0
  6
Continuous
 62
     7
370
    25
100
AcDbLine
 10
331.8735407555
 20
145.3046709638
 30
0.0
 11
330.1299628841
 21
145.4572142615
 31
0.0
  0
LINE
  5
38B
330
1F
100
AcDbEntity
  8
0
  6
Continuous
 62
     7
370
    25
100
AcDbLine
 10
331.8735407555
 20
144.5575249402
 30
0.0
 11
331.8735407555
 21
145.3046709638
 31
0.0
  0
LINE
  5
38C
330
1F
100
AcDbEntity
  8
0
  6
Continuous
 62
     7
370
    25
100
AcDbLine
 10
330.1299628841
 20
144.710068238
 30
0.0
 11
331.8735407555
 21
144.5575249402
 31
0.0
  0
ARC
  5
38D
330
1F
100
AcDbEntity
  8
0
  6
Continuous
 62
     7
370
    25
100
AcDbCircle
 10
333.3083433
 20
145.0836412497
 30
0.0
 40
3.200259186872763
100
AcDbArc
 50
173.2964593206
 51
186.7035406794
  0
LINE
  5
38E
330
1F
100
AcDbEntity
  8
0
  6
Continuous
 62
     7
370
    25
100
AcDbLine
 10
329.6735407555
 20
190.5427857385
 30
0.0
 11
329.6735407555
 21
174.4399899173
 31
0.0
  0
LINE
  5
38F
330
1F
100
AcDbEntity
  8
0
  6
Continuous
 62
     7
370
    25
100
AcDbLine
 10
329.6735407555
 20
173.4597275098
 30
0.0
 11
329.6735407555
 21
160.6215749284
 31
0.0
  0
LINE
  5
390
330
1F
100
AcDbEntity
  8
0
  6
Continuous
 62
     7
370
    25
100
AcDbLine
 10
329.6735407555
 20
159.6415749284
 30
0.0
 11
329.6735407555
 21
145.4572142615
 31
0.0
  0
LINE
  5
391
330
1F
100
AcDbEntity
  8
0
  6
Continuous
 62
     7
370
    25
100
AcDbLine
 10
330.1299628841
 20
190.5427857385
 30
0.0
 11
329.6735407555
 21
190.5427857385
 31
0.0
  0
LINE
  5
392
330
1F
100
AcDbEntity
  8
0
  6
Continuous
 62
     7
370
    25
100
AcDbLine
 10
329.6735407555
 20
145.4572142615
 30
0.0
 11
330.1299628841
 21
145.4572142615
 31
0.0
  0
LINE
  5
393
330
1F
100
AcDbEntity
  8
0
  6
Continuous
 62
     7
370
    25
100
AcDbLine
 10
329.6735407555
 20
190.791834413
 30
0.0
 11
329.6735407555
 21
190.5427857385
 31
0.0
  0
ARC
  5
394
330
1F
100
AcDbEntity
  8
0
  6
Continuous
 62
     7
370
    25
100
AcDbCircle
 10
330.1735407555
 20
190.791834413
 30
0.0
 40
0.4999999999998918
100
AcDbArc
 50
95.0
 51
180.0
  0
LINE
  5
395
330
1F
100
AcDbEntity
  8
0
  6
Continuous
 62
     7
370
    25
100
AcDbLine
 10
329.6735407555
 20
145.4572142615
 30
0.0
 11
329.6735407555
 21
145.208165587
 31
0.0
  0
ARC
  5
396
330
1F
100
AcDbEntity
  8
0
  6
Continuous
 62
     7
370
    25
100
AcDbCircle
 10
330.1735407555
 20
145.208165587
 30
0.0
 40
0.5000000000001137
100
AcDbArc
 50
180.0
 51
265.0
  0
LINE
  5
397
330
1F
100
AcDbEntity
  8
0
  6
Continuous
 62
     7
370
    25
100
AcDbLine
 10
332.3648145522
 20
184.4479394149
 30
0.0
 11
332.3648145522
 21
186.4530236411
 31
0.0
  0
LINE
  5
398
330
1F
100
AcDbEntity
  8
0
  6
Continuous
 62
     7
370
    25
100
AcDbLine
 10
332.3648145523
 20
184.4479394149
 30
0.0
 11
331.8735407555
 21
184.4479394149
 31
0.0
  0
ARC
  5
399
330
1F
100
AcDbEntity
  8
0
  6
Continuous
 62
     7
370
    25
100
AcDbCircle
 10
332.3735407555
 20
186.9529474887
 30
0.0
 40
0.5000000000000068
100
AcDbArc
 50
224.4463869839
 51
269.0
  0
ARC
  5
39A
330
1F
100
AcDbEntity
  8
0
  6
Continuous
 62
     7
370
    25
100
AcDbCircle
 10
332.3735407555
 20
186.9529474887
 30
0.0
 40
0.5
100
AcDbArc
 50
180.0
 51
222.6663334641
  0
LINE
  5
39B
330
1F
100
AcDbEntity
  8
0
  6
Continuous
 62
     7
370
    25
100
AcDbLine
 10
332.3648145522
 20
149.5469763589
 30
0.0
 11
332.3648145522
 21
151.5520605851
 31
0.0
  0
ARC
  5
39C
330
1F
100
AcDbEntity
  8
0
  6
Continuous
 62
     7
370
    25
100
AcDbCircle
 10
332.3735407555
 20
149.0470525113
 30
0.0
 40
0.5000000000000449
100
AcDbArc
 50
91.0
 51
135.5540047444
  0
ARC
  5
39D
330
1F
100
AcDbEntity
  8
0
  6
Continuous
 62
     7
370
    25
100
AcDbCircle
 10
332.3735407555
 20
149.0470525113
 30
0.0
 40
0.5000000000000203
100
AcDbArc
 50
137.7151921851
 51
180.0
  0
LINE
  5
39E
330
1F
100
AcDbEntity
  8
0
  6
Continuous
 62
     7
370
    25
100
AcDbLine
 10
332.3648145523
 20
151.5520605851
 30
0.0
 11
331.8735407555
 21
151.5520605851
 31
0.0
  0
LWPOLYLINE
  5
39F
330
1F
100
AcDbEntity
  8
0
  6
Continuous
 62
     7
370
    25
100
AcDbPolyline
 90
       13
 70
   128
 43
0.0
 10
368.1822669587
 20
155.160797427
 10
367.8122992158
 20
155.0804851532
 10
367.7197439176
 20
155.0402533863
 10
367.7062440349
 20
155.0301912222
 10
367.6966018237
 20
155.0201280447
 10
367.6908177052
 20
155.0100641917
 10
367.6888912296
 20
155.0000000011
 10
367.6908219453
 20
154.9899358106
 10
367.6966094005
 20
154.9798719578
 10
367.7062531437
 20
154.9698087805
 10
367.719752723
 20
154.9597466164
 10
367.8123003686
 20
154.9195148469
 10
368.1822669587
 20
154.839202573
  0
LINE
  5
3A0
330
1F
100
AcDbEntity
  8
0
  6
Continuous
 62
     7
370
    25
100
AcDbLine
 10
368.1822669587
 20
154.839202573
 30
0.0
 11
368.1822669587
 21
152.1718677065
 31
0.0
  0
LINE
  5
3A1
330
1F
100
AcDbEntity
  8
0
  6
Continuous
 62
     7
370
    25
100
AcDbLine
 10
368.1822669587
 20
152.1718677065
 30
0.0
 11
332.6735407555
 21
151.5520605851
 31
0.0
  0
LINE
  5
3A2
330
1F
100
AcDbEntity
  8
0
  6
Continuous
 62
     7
370
    25
100
AcDbLine
 10
332.6735407555
 20
151.5520605851
 30
0.0
 11
332.3648145523
 21
151.5520605851
 31
0.0
  0
LINE
  5
3A3
330
1F
100
AcDbEntity
  8
0
  6
Continuous
 62
     7
370
    25
100
AcDbLine
 10
332.6735407555
 20
184.4479394149
 30
0.0
 11
332.3648145523
 21
184.4479394149
 31
0.0
  0
LINE
  5
3A4
330
1F
100
AcDbEntity
  8
0
  6
Continuous
 62
     7
370
    25
100
AcDbLine
 10
332.6735407555
 20
184.4479394149
 30
0.0
 11
368.1822669587
 21
183.8281322935
 31
0.0
  0
LINE
  5
3A5
330
1F
100
AcDbEntity
  8
0
  6
Continuous
 62
     7
370
    25
100
AcDbLine
 10
368.1822669587
 20
183.8281322935
 30
0.0
 11
368.1822669587
 21
181.160797427
 31
0.0
  0
LWPOLYLINE
  5
3A6
330
1F
100
AcDbEntity
  8
0
  6
Continuous
 62
     7
370
    25
100
AcDbPolyline
 90
       13
 70
   128
 43
0.0
 10
368.1822669587
 20
181.160797427
 10
367.8123003686
 20
181.0804851531
 10
367.719752723
 20
181.0402533836
 10
367.7062531437
 20
181.0301912195
 10
367.6966094006
 20
181.0201280422
 10
367.6908219453
 20
181.0100641894
 10
367.6888912296
 20
180.9999999989
 10
367.6908177052
 20
180.9899358083
 10
367.6966018238
 20
180.9798719553
 10
367.7062440349
 20
180.9698087778
 10
367.7197439176
 20
180.9597466137
 10
367.8122992158
 20
180.9195148468
 10
368.1822669587
 20
180.839202573
  0
LINE
  5
3A7
330
1F
100
AcDbEntity
  8
0
  6
Continuous
 62
     7
370
    25
100
AcDbLine
 10
332.6735407555
 20
186.4476348052
 30
0.0
 11
332.3648145523
 21
186.4530236411
 31
0.0
  0
LWPOLYLINE
  5
3A8
330
1F
100
AcDbEntity
  8
0
  6
Continuous
 62
     7
370
    25
100
AcDbPolyline
 90
        7
 70
   128
 43
0.0
 10
332.6735407555
 20
186.4476348052
 10
332.673574191
 20
186.4060061271
 10
332.67359836
 20
186.287098491
 10
332.6735407555
 20
185.8619745275
 10
332.6735981436
 20
185.2330680343
 10
332.6735741142
 20
184.8539070344
 10
332.6735407555
 20
184.4479394149
  0
LWPOLYLINE
  5
3A9
330
1F
100
AcDbEntity
  8
0
  6
Continuous
 62
     7
370
    25
100
AcDbPolyline
 90
        7
 70
   128
 43
0.0
 10
332.6735407555
 20
151.5520605851
 10
332.673574191
 20
151.1461122378
 10
332.67359836
 20
150.7669561025
 10
332.6735407555
 20
150.1380254725
 10
332.6735981436
 20
149.7129118059
 10
332.6735741142
 20
149.5939978661
 10
332.6735407555
 20
149.5523651948
  0
LINE
  5
3AA
330
1F
100
AcDbEntity
  8
0
  6
Continuous
 62
     7
370
    25
100
AcDbLine
 10
332.6735407555
 20
149.5523651948
 30
0.0
 11
332.3648145523
 21
149.5469763589
 31
0.0
  0
LINE
  5
3AB
330
1F
100
AcDbEntity
  8
0
  6
Continuous
 62
     7
370
    25
100
AcDbLine
 10
368.1829970187
 20
150.209365862
 30
0.0
 11
368.1822669587
 21
150.1721723162
 31
0.0
  0
LINE
  5
3AC
330
1F
100
AcDbEntity
  8
0
  6
Continuous
 62
     7
370
    25
100
AcDbLine
 10
332.6735407555
 20
149.5523651948
 30
0.0
 11
368.1822669587
 21
150.1721723162
 31
0.0
  0
LINE
  5
3AD
330
1F
100
AcDbEntity
  8
0
  6
Continuous
 62
     7
370
    25
100
AcDbLine
 10
368.1822669587
 20
185.8278276838
 30
0.0
 11
332.6735407555
 21
186.4476348052
 31
0.0
  0
ARC
  5
3AE
330
1F
100
AcDbEntity
  8
0
  6
Continuous
 62
     7
370
    25
100
AcDbCircle
 10
266.7573229118
 20
184.8279799887
 30
0.0
 40
101.4298721793877
100
AcDbArc
 50
359.4351961639
 51
0.5648038361
  0
LWPOLYLINE
  5
3AF
330
1F
100
AcDbEntity
  8
0
  6
Continuous
 62
     7
370
    25
100
AcDbPolyline
 90
        6
 70
   128
 43
0.0
 10
369.1691774877
 20
153.1420518014
 10
369.0735375584
 20
153.5364408151
 10
368.8477392329
 20
153.9752647995
 10
368.3027059366
 20
154.7755698468
 10
368.2175994403
 20
154.8546258845
 10
368.1866298942
 20
154.8659633895
  0
LWPOLYLINE
  5
3B0
330
1F
100
AcDbEntity
  8
0
  6
Continuous
 62
     7
370
    25
100
AcDbPolyline
 90
       11
 70
   128
 43
0.0
 10
368.1866298942
 20
154.8659633895
 10
367.816663304
 20
154.9328952611
 10
367.7241156585
 20
154.9664368241
 10
367.700972336
 20
154.9832170617
 10
367.6951848808
 20
154.9916083626
 10
367.6932541651
 20
155.0000000012
 10
367.6951806407
 20
155.00839164
 10
367.7009647592
 20
155.016782941
 10
367.7241068531
 20
155.0335631789
 10
367.8166621513
 20
155.067104739
 10
368.1866298942
 20
155.1340366105
  0
ARC
  5
3B1
330
1F
100
AcDbEntity
  8
0
  6
Continuous
 62
     7
370
    25
100
AcDbCircle
 10
366.3813973321
 20
157.3048917774
 30
0.0
 40
2.823380377927516
100
AcDbArc
 50
309.7461209095
 51
350.8917134393
  0
LINE
  5
3B2
330
1F
100
AcDbEntity
  8
0
  6
Continuous
 62
     7
370
    25
100
AcDbLine
 10
369.1691774877
 20
156.8579481986
 30
0.0
 11
369.1691774877
 21
156.9271287983
 31
0.0
  0
LWPOLYLINE
  5
3B3
330
1F
100
AcDbEntity
  8
0
  6
Continuous
 62
     7
370
    25
100
AcDbPolyline
 90
        5
 70
   128
 43
0.0
 10
369.1691774877
 20
156.9271287983
 10
373.0644731351
 20
156.9319640764
 10
375.5944256937
 20
156.9343413833
 10
378.1310098395
 20
156.9361282168
 10
380.6735407555
 20
156.9373247705
  0
LWPOLYLINE
  5
3B4
330
1F
100
AcDbEntity
  8
0
  6
Continuous
 62
     7
370
    25
100
AcDbPolyline
 90
        5
 70
   128
 43
0.0
 10
380.6735407555
 20
179.0626752295
 10
376.7466375099
 20
179.0647732265
 10
374.2135858112
 20
179.0668821277
 10
371.6875384851
 20
179.0695815083
 10
369.1691774877
 20
179.0728712017
  0
LINE
  5
3B5
330
1F
100
AcDbEntity
  8
0
  6
Continuous
 62
     7
370
    25
100
AcDbLine
 10
369.1691774877
 20
179.0728712017
 30
0.0
 11
369.1691774877
 21
179.1420518014
 31
0.0
  0
ARC
  5
3B6
330
1F
100
AcDbEntity
  8
0
  6
Continuous
 62
     7
370
    25
100
AcDbCircle
 10
366.5423665317
 20
178.7868530086
 30
0.0
 40
2.650717257837425
100
AcDbArc
 50
7.7008571817
 51
51.6613084696
  0
LWPOLYLINE
  5
3B7
330
1F
100
AcDbEntity
  8
0
  6
Continuous
 62
     7
370
    25
100
AcDbPolyline
 90
       11
 70
   128
 43
0.0
 10
368.1866298942
 20
180.8659633895
 10
367.8166621513
 20
180.932895261
 10
367.7241068531
 20
180.9664368211
 10
367.7009647592
 20
180.983217059
 10
367.6951806407
 20
180.99160836
 10
367.6932541651
 20
180.9999999988
 10
367.6951848808
 20
181.0083916374
 10
367.700972336
 20
181.0167829383
 10
367.7241156585
 20
181.0335631759
 10
367.816663304
 20
181.0671047389
 10
368.1866298942
 20
181.1340366105
  0
ARC
  5
3B8
330
1F
100
AcDbEntity
  8
0
  6
Continuous
 62
     7
370
    25
100
AcDbCircle
 10
366.3024907103
 20
183.349864798
 30
0.0
 40
2.908586430021542
100
AcDbArc
 50
310.3748213278
 51
350.2630130209
  0
ARC
  5
3B9
330
1F
100
AcDbEntity
  8
0
  6
Continuous
 62
     7
370
    25
100
AcDbCircle
 10
396.8001706234
 20
159.812766057
 30
0.0
 40
28.99353759542828
100
AcDbArc
 50
189.232927739
 51
189.2865095328
  0
ARC
  5
3BA
330
1F
100
AcDbEntity
  8
0
  6
Continuous
 62
     7
370
    25
100
AcDbCircle
 10
396.8001709833
 20
150.1872338844
 30
0.0
 40
28.99353796006711
100
AcDbArc
 50
170.7134904676
 51
170.7670722608
  0
ARC
  5
3BB
330
1F
100
AcDbEntity
  8
0
  6
Continuous
 62
     7
370
    25
100
AcDbCircle
 10
396.8001709444
 20
176.1872338906
 30
0.0
 40
28.9935379207026
100
AcDbArc
 50
170.7134904674
 51
170.7670722606
  0
ARC
  5
3BC
330
1F
100
AcDbEntity
  8
0
  6
Continuous
 62
     7
370
    25
100
AcDbCircle
 10
396.8001709466
 20
185.8127661096
 30
0.0
 40
28.99353792287319
100
AcDbArc
 50
189.2329277392
 51
189.2865095324
  0
LINE
  5
3BD
330
1F
100
AcDbEntity
  8
0
  6
Continuous
 62
     7
370
    25
100
AcDbLine
 10
368.6735407555
 20
152.1718677065
 30
0.0
 11
368.6735407555
 21
152.7698323179
 31
0.0
  0
LINE
  5
3BE
330
1F
100
AcDbEntity
  8
0
  6
Continuous
 62
     7
370
    25
100
AcDbLine
 10
368.6735407555
 20
152.1718677065
 30
0.0
 11
368.1822669587
 21
152.1718677065
 31
0.0
  0
ARC
  5
3BF
330
1F
100
AcDbEntity
  8
0
  6
Continuous
 62
     7
370
    25
100
AcDbCircle
 10
363.7751561813
 20
152.6999432348
 30
0.0
 40
4.898883129934117
100
AcDbArc
 50
0.8174282258
 51
25.8924388562
  0
LINE
  5
3C0
330
1F
100
AcDbEntity
  8
0
  6
Continuous
 62
     7
370
    25
100
AcDbLine
 10
368.1822669587
 20
183.8281322935
 30
0.0
 11
368.6735407555
 21
183.8281322935
 31
0.0
  0
LINE
  5
3C1
330
1F
100
AcDbEntity
  8
0
  6
Continuous
 62
     7
370
    25
100
AcDbLine
 10
368.6735407555
 20
183.2301676821
 30
0.0
 11
368.6735407555
 21
183.8281322935
 31
0.0
  0
ARC
  5
3C2
330
1F
100
AcDbEntity
  8
0
  6
Continuous
 62
     7
370
    25
100
AcDbCircle
 10
363.8412847016
 20
183.2843576852
 30
0.0
 40
4.832559893722136
100
AcDbArc
 50
333.9326337068
 51
359.3574992111
  0
LINE
  5
3C3
330
1F
100
AcDbEntity
  8
0
  6
Continuous
 62
     7
370
    25
100
AcDbLine
 10
368.6735407555
 20
157.2301676821
 30
0.0
 11
368.6735407555
 21
159.6415749284
 31
0.0
  0
LINE
  5
3C4
330
1F
100
AcDbEntity
  8
0
  6
Continuous
 62
     7
370
    25
100
AcDbLine
 10
368.6735407555
 20
160.6215749284
 30
0.0
 11
368.6735407555
 21
172.557151393
 31
0.0
  0
LINE
  5
3C5
330
1F
100
AcDbEntity
  8
0
  6
Continuous
 62
     7
370
    25
100
AcDbLine
 10
368.6735407555
 20
173.5374138006
 30
0.0
 11
368.6735407555
 21
178.7698323179
 31
0.0
  0
ARC
  5
3C6
330
1F
100
AcDbEntity
  8
0
  6
Continuous
 62
     7
370
    25
100
AcDbCircle
 10
364.189993194
 20
157.2015733963
 30
0.0
 40
4.483638742040666
100
AcDbArc
 50
332.9247281446
 51
0.3654047733
  0
ARC
  5
3C7
330
1F
100
AcDbEntity
  8
0
  6
Continuous
 62
     7
370
    25
100
AcDbCircle
 10
363.3739269843
 20
178.6046903961
 30
0.0
 40
5.302186150794086
100
AcDbArc
 50
1.7848233417
 51
24.9250437404
  0
ARC
  5
3C8
330
1F
100
AcDbEntity
  8
0
  6
Continuous
 62
     7
370
    25
100
AcDbCircle
 10
369.1166774591
 20
157.304138207
 30
0.0
 40
0.4492680454248403
100
AcDbArc
 50
189.4767142618
 51
276.7107343668
  0
ARC
  5
3C9
330
1F
100
AcDbEntity
  8
0
  6
Continuous
 62
     7
370
    25
100
AcDbCircle
 10
369.1166774591
 20
178.695861793
 30
0.0
 40
0.4492680454248487
100
AcDbArc
 50
83.2892656332
 51
170.5232857382
  0
ARC
  5
3CA
330
1F
100
AcDbEntity
  8
0
  6
Continuous
 62
     7
370
    25
100
AcDbCircle
 10
369.1166774591
 20
152.695861793
 30
0.0
 40
0.4492680454248985
100
AcDbArc
 50
83.2892656332
 51
170.5232857382
  0
ARC
  5
3CB
330
1F
100
AcDbEntity
  8
0
  6
Continuous
 62
     7
370
    25
100
AcDbCircle
 10
369.1166774591
 20
183.304138207
 30
0.0
 40
0.4492680454248356
100
AcDbArc
 50
189.4767142618
 51
276.7107343668
  0
LINE
  5
3CC
330
1F
100
AcDbEntity
  8
0
  6
Continuous
 62
     7
370
    25
100
AcDbLine
 10
368.6735407555
 20
150.6720961638
 30
0.0
 11
368.6735407555
 21
152.1718677065
 31
0.0
  0
ARC
  5
3CD
330
1F
100
AcDbEntity
  8
0
  6
Continuous
 62
     7
370
    25
100
AcDbCircle
 10
368.1735407555
 20
150.6720961638
 30
0.0
 40
0.5
100
AcDbArc
 50
271.0
 51
0.0
  0
ARC
  5
3CE
330
1F
100
AcDbEntity
  8
0
  6
Continuous
 62
     7
370
    25
100
AcDbCircle
 10
368.1735407555
 20
185.3279038362
 30
0.0
 40
0.5
100
AcDbArc
 50
0.0
 51
44.9264328492
  0
LWPOLYLINE
  5
3CF
330
1F
100
AcDbEntity
  8
0
  6
Continuous
 62
     7
370
    25
100
AcDbPolyline
 90
        3
 70
   128
 43
0.0
 10
368.3685574861
 20
185.7883041781
 10
368.2785633462
 20
185.8167496764
 10
368.1822669587
 20
185.8278276838
  0
LINE
  5
3D0
330
1F
100
AcDbEntity
  8
0
  6
Continuous
 62
     7
370
    25
100
AcDbLine
 10
368.6735407555
 20
183.8281322935
 30
0.0
 11
368.6735407555
 21
185.3279038362
 31
0.0
  0
LINE
  5
3D1
330
1F
100
AcDbEntity
  8
0
  6
Continuous
 62
     7
370
    25
100
AcDbLine
 10
382.6735407555
 20
179.0626752295
 30
0.0
 11
380.6735407555
 21
179.0626752295
 31
0.0
  0
LINE
  5
3D2
330
1F
100
AcDbEntity
  8
0
  6
Continuous
 62
     7
370
    25
100
AcDbLine
 10
382.6735407555
 20
183.3952775865
 30
0.0
 11
382.6735407555
 21
179.0626752295
 31
0.0
  0
LINE
  5
3D3
330
1F
100
AcDbEntity
  8
0
  6
Continuous
 62
     7
370
    25
100
AcDbLine
 10
382.6735407555
 20
156.9373247705
 30
0.0
 11
380.6735407555
 21
156.9373247705
 31
0.0
  0
LINE
  5
3D4
330
1F
100
AcDbEntity
  8
0
  6
Continuous
 62
     7
370
    25
100
AcDbLine
 10
382.6735407555
 20
156.9373247705
 30
0.0
 11
382.6735407555
 21
152.6047224135
 31
0.0
  0
ARC
  5
3D5
330
1F
100
AcDbEntity
  8
0
  6
Continuous
 62
     7
370
    25
100
AcDbCircle
 10
369.1220404349
 20
157.3777969877
 30
0.0
 40
0.4531266033848246
100
AcDbArc
 50
188.194911631
 51
275.97106648
  0
ARC
  5
3D6
330
1F
100
AcDbEntity
  8
0
  6
Continuous
 62
     7
370
    25
100
AcDbCircle
 10
369.1220404349
 20
178.6222030123
 30
0.0
 40
0.4531266033848298
100
AcDbArc
 50
84.02893352
 51
171.805088369
  0
LINE
  5
3D7
330
1F
100
AcDbEntity
  8
0
  6
Continuous
 62
     7
370
    25
100
AcDbLine
 10
369.1648145523
 20
178.6867921461
 30
0.0
 11
368.6735407555
 21
178.6867921461
 31
0.0
  0
LINE
  5
3D8
330
1F
100
AcDbEntity
  8
0
  6
Continuous
 62
     7
370
    25
100
AcDbLine
 10
368.6735407555
 20
157.3132078539
 30
0.0
 11
369.1648145523
 21
157.3132078539
 31
0.0
  0
ARC
  5
3D9
330
1F
100
AcDbEntity
  8
0
  6
Continuous
 62
     7
370
    25
100
AcDbCircle
 10
388.9806448931
 20
157.3440749851
 30
0.0
 40
19.81585438167649
100
AcDbArc
 50
180.0892495991
 51
181.205651768
  0
ARC
  5
3DA
330
1F
100
AcDbEntity
  8
0
  6
Continuous
 62
     7
370
    25
100
AcDbCircle
 10
388.9806448926
 20
178.6559250149
 30
0.0
 40
19.81585438119388
100
AcDbArc
 50
178.794348232
 51
179.910750401
  0
LWPOLYLINE
  5
3DB
330
1F
100
AcDbEntity
  8
0
  6
Continuous
 62
     7
370
    25
100
AcDbPolyline
 90
        5
 70
   128
 43
0.0
 10
380.6735407555
 20
157.3417227309
 10
376.745143986
 20
157.3334872168
 10
374.2111307909
 20
157.3273556144
 10
371.6841267366
 20
157.3205952178
 10
369.1648145523
 20
157.3132078539
  0
LINE
  5
3DC
330
1F
100
AcDbEntity
  8
0
  6
Continuous
 62
     7
370
    25
100
AcDbLine
 10
380.6735407555
 20
156.9373247705
 30
0.0
 11
380.6735407555
 21
157.3417227309
 31
0.0
  0
LINE
  5
3DD
330
1F
100
AcDbEntity
  8
0
  6
Continuous
 62
     7
370
    25
100
AcDbLine
 10
380.6735407555
 20
178.6582772691
 30
0.0
 11
380.6735407555
 21
179.0626752295
 31
0.0
  0
LWPOLYLINE
  5
3DE
330
1F
100
AcDbEntity
  8
0
  6
Continuous
 62
     7
370
    25
100
AcDbPolyline
 90
        5
 70
   128
 43
0.0
 10
369.1648145523
 20
178.6867921461
 10
373.0615826007
 20
178.6756394492
 10
375.5924945843
 20
178.6692218157
 10
378.1300425006
 20
178.6634339015
 10
380.6735407555
 20
178.6582772691
  0
LINE
  5
3DF
330
1F
100
AcDbEntity
  8
0
  6
Continuous
 62
     7
370
    25
100
AcDbLine
 10
382.6735407555
 20
178.6582772691
 30
0.0
 11
380.6735407555
 21
178.6582772691
 31
0.0
  0
LINE
  5
3E0
330
1F
100
AcDbEntity
  8
0
  6
Continuous
 62
     7
370
    25
100
AcDbLine
 10
382.6735407555
 20
179.0626752295
 30
0.0
 11
382.6735407555
 21
178.6582772691
 31
0.0
  0
LINE
  5
3E1
330
1F
100
AcDbEntity
  8
0
  6
Continuous
 62
     7
370
    25
100
AcDbLine
 10
382.6735407555
 20
157.3417227309
 30
0.0
 11
380.6735407555
 21
157.3417227309
 31
0.0
  0
LINE
  5
3E2
330
1F
100
AcDbEntity
  8
0
  6
Continuous
 62
     7
370
    25
100
AcDbLine
 10
382.6735407555
 20
157.3417227309
 30
0.0
 11
382.6735407555
 21
156.9373247705
 31
0.0
  0
LINE
  5
3E3
330
1F
100
AcDbEntity
  8
0
  6
Continuous
 62
     7
370
    25
100
AcDbLine
 10
377.6735407555
 20
162.9858220951
 30
0.0
 11
377.6735407555
 21
162.1689188515
 31
0.0
  0
LINE
  5
3E4
330
1F
100
AcDbEntity
  8
0
  6
Continuous
 62
     7
370
    25
100
AcDbLine
 10
377.6735407555
 20
161.1858220951
 30
0.0
 11
377.6735407555
 21
160.6215749284
 31
0.0
  0
LINE
  5
3E5
330
1F
100
AcDbEntity
  8
0
  6
Continuous
 62
     7
370
    25
100
AcDbLine
 10
377.6735407555
 20
175.5
 30
0.0
 11
377.6735407555
 21
173.3291270045
 31
0.0
  0
LINE
  5
3E6
330
1F
100
AcDbEntity
  8
0
  6
Continuous
 62
     7
370
    25
100
AcDbLine
 10
372.6735407555
 20
175.5
 30
0.0
 11
377.6735407555
 21
175.5
 31
0.0
  0
LINE
  5
3E7
330
1F
100
AcDbEntity
  8
0
  6
Continuous
 62
     7
370
    25
100
AcDbLine
 10
372.6735407555
 20
175.5
 30
0.0
 11
372.6735407555
 21
173.4448418912
 31
0.0
  0
LINE
  5
3E8
330
1F
100
AcDbEntity
  8
0
  6
Continuous
 62
     7
370
    25
100
AcDbLine
 10
372.6735407555
 20
172.4645794836
 30
0.0
 11
372.6735407555
 21
160.6215749284
 31
0.0
  0
LINE
  5
3E9
330
1F
100
AcDbEntity
  8
0
  6
Continuous
 62
     7
370
    25
100
AcDbLine
 10
382.6735407555
 20
178.6582772691
 30
0.0
 11
382.6735407555
 21
173.4109122577
 31
0.0
  0
LINE
  5
3EA
330
1F
100
AcDbEntity
  8
0
  6
Continuous
 62
     7
370
    25
100
AcDbLine
 10
382.6735407555
 20
163.4280424817
 30
0.0
 11
382.6735407555
 21
162.6109122577
 31
0.0
  0
LINE
  5
3EB
330
1F
100
AcDbEntity
  8
0
  6
Continuous
 62
     7
370
    25
100
AcDbLine
 10
382.6735407555
 20
161.6280424817
 30
0.0
 11
382.6735407555
 21
160.8109122577
 31
0.0
  0
LINE
  5
3EC
330
1F
100
AcDbEntity
  8
0
  6
Continuous
 62
     7
370
    25
100
AcDbLine
 10
382.6735407555
 20
159.8280424817
 30
0.0
 11
382.6735407555
 21
157.3417227309
 31
0.0
  0
LWPOLYLINE
  5
3ED
330
1F
100
AcDbEntity
  8
0
  6
Continuous
 62
     7
370
    25
100
AcDbPolyline
 90
        3
 70
   128
 43
0.0
 10
368.1909928296
 20
149.8365574405
 10
368.4674558233
 20
149.8589051726
 10
368.6735407555
 20
149.90069564
  0
ARC
  5
3EE
330
1F
100
AcDbEntity
  8
0
  6
Continuous
 62
     7
370
    25
100
AcDbCircle
 10
354.4070608221
 20
149.6461008402
 30
0.0
 40
13.78524774179748
100
AcDbArc
 50
0.7916220854
 51
2.1870478286
  0
LINE
  5
3EF
330
1F
100
AcDbEntity
  8
0
  6
Continuous
 62
     7
370
    25
100
AcDbLine
 10
368.6735407555
 20
149.90069564
 30
0.0
 11
368.6735407555
 21
150.6720961638
 31
0.0
  0
ARC
  5
3F0
330
1F
100
AcDbEntity
  8
0
  6
Continuous
 62
     7
370
    25
100
AcDbCircle
 10
354.4237558671
 20
186.3534650948
 30
0.0
 40
13.76854829848085
100
AcDbArc
 50
357.8121058938
 51
359.2092241551
  0
LWPOLYLINE
  5
3F1
330
1F
100
AcDbEntity
  8
0
  6
Continuous
 62
     7
370
    25
100
AcDbPolyline
 90
        3
 70
   128
 43
0.0
 10
368.6735407555
 20
186.09930436
 10
368.4089762752
 20
186.1489441448
 10
368.1909928296
 20
186.1634425595
  0
LINE
  5
3F2
330
1F
100
AcDbEntity
  8
0
  6
Continuous
 62
     7
370
    25
100
AcDbLine
 10
368.6735407555
 20
185.3525011237
 30
0.0
 11
368.6735407555
 21
186.09930436
 31
0.0
  0
ARC
  5
3F3
330
1F
100
AcDbEntity
  8
0
  6
Continuous
 62
     7
370
    25
100
AcDbCircle
 10
375.2334295923
 20
173.6541229647
 30
0.0
 40
1.862898609922625
100
AcDbArc
 50
350.3887978469
 51
14.5323842241
  0
LWPOLYLINE
  5
3F4
330
1F
100
AcDbEntity
  8
0
  6
Continuous
 62
     7
370
    25
100
AcDbPolyline
 90
        8
 70
   128
 43
0.0
 10
376.26879814
 20
173.361636931
 10
376.2328835133
 20
173.4440600465
 10
376.2022708728
 20
173.6315749284
 10
376.2328835133
 20
173.8190898102
 10
376.3200609377
 20
173.9780572511
 10
376.4505311735
 20
174.0842758993
 10
376.6044313099
 20
174.1215749284
 10
376.60463792
 20
174.1215748637
  0
LWPOLYLINE
  5
3F5
330
1F
100
AcDbEntity
  8
0
  6
Continuous
 62
     7
370
    25
100
AcDbPolyline
 90
        5
 70
   128
 43
0.0
 10
332.3691774877
 20
149.3206970336
 10
342.099682104
 20
149.4626367767
 10
352.0820702248
 20
149.6068994857
 10
360.0787256283
 20
149.7214108488
 10
368.1909928296
 20
149.8365574405
  0
LINE
  5
3F6
330
1F
100
AcDbEntity
  8
0
  6
Continuous
 62
     7
370
    25
100
AcDbLine
 10
332.3691774877
 20
149.3206970336
 30
0.0
 11
332.3665909682
 21
149.4887252487
 31
0.0
  0
LINE
  5
3F7
330
1F
100
AcDbEntity
  8
0
  6
Continuous
 62
     7
370
    25
100
AcDbLine
 10
332.3665909105
 20
186.5112717599
 30
0.0
 11
332.3691774877
 21
186.6793029664
 31
0.0
  0
LWPOLYLINE
  5
3F8
330
1F
100
AcDbEntity
  8
0
  6
Continuous
 62
     7
370
    25
100
AcDbPolyline
 90
        5
 70
   128
 43
0.0
 10
368.1909928296
 20
186.1634425595
 10
355.7014401877
 20
186.3411515142
 10
347.7753423368
 20
186.4551661807
 10
339.9921634142
 20
186.5679985671
 10
332.3691774877
 20
186.6793029664
  0
ARC
  5
3F9
330
1F
100
AcDbEntity
  8
0
  6
Continuous
 62
     7
370
    25
100
AcDbCircle
 10
374.3922898002
 20
173.6341165576
 30
0.0
 40
0.494390451128814
100
AcDbArc
 50
99.6060138943
 51
206.2665506552
  0
ARC
  5
3FA
330
1F
100
AcDbEntity
  8
0
  6
Continuous
 62
     7
370
    25
100
AcDbCircle
 10
332.3223335578
 20
148.8697766469
 30
0.0
 40
0.4533470512852787
100
AcDbArc
 50
84.0690942451
 51
171.8717910392
  0
ARC
  5
3FB
330
1F
100
AcDbEntity
  8
0
  6
Continuous
 62
     7
370
    25
100
AcDbCircle
 10
332.3223335578
 20
187.1302233531
 30
0.0
 40
0.453347051286573
100
AcDbArc
 50
188.1282089609
 51
275.9309057554
  0
LINE
  5
3FC
330
1F
100
AcDbEntity
  8
0
  6
Continuous
 62
     7
370
    25
100
AcDbLine
 10
368.6735407555
 20
149.0
 30
0.0
 11
368.6735407555
 21
149.90069564
 31
0.0
  0
LINE
  5
3FD
330
1F
100
AcDbEntity
  8
0
  6
Continuous
 62
     7
370
    25
100
AcDbLine
 10
368.6735407555
 20
186.09930436
 30
0.0
 11
368.6735407555
 21
187.0
 31
0.0
  0
LWPOLYLINE
  5
3FE
330
1F
100
AcDbEntity
  8
0
  6
Continuous
 62
     7
370
    25
100
AcDbPolyline
 90
        3
 70
   128
 43
0.0
 10
377.0014590519
 20
160.6280358105
 10
376.9759791066
 20
160.7375148724
 10
376.9129478109
 20
160.8643204692
  0
LWPOLYLINE
  5
3FF
330
1F
100
AcDbEntity
  8
0
  6
Continuous
 62
     7
370
    25
100
AcDbPolyline
 90
        9
 70
   128
 43
0.0
 10
374.7076719491
 20
160.6215749284
 10
374.6813728555
 20
160.7375148724
 10
374.5941954311
 20
160.8964823133
 10
374.4637251953
 20
161.0027009614
 10
374.3098250589
 20
161.0399999905
 10
374.1559249224
 20
161.0027009614
 10
374.0254546866
 20
160.8964823133
 10
373.9382772622
 20
160.7375148724
 10
373.9119781686
 20
160.6215749284
  0
LWPOLYLINE
  5
400
330
1F
100
AcDbEntity
  8
0
  6
Continuous
 62
     7
370
    25
100
AcDbPolyline
 90
        3
 70
   128
 43
0.0
 10
376.9964389483
 20
160.6594070721
 10
376.9985429208
 20
160.7375148724
 10
377.0039227015
 20
160.8480112606
  0
LINE
  5
401
330
1F
100
AcDbEntity
  8
0
  6
Continuous
 62
     7
370
    25
100
AcDbLine
 10
330.1299628841
 20
145.4572142615
 30
0.0
 11
330.1299628841
 21
159.6415749284
 31
0.0
  0
LINE
  5
402
330
1F
100
AcDbEntity
  8
0
  6
Continuous
 62
     7
370
    25
100
AcDbLine
 10
330.1299628841
 20
160.6215749284
 30
0.0
 11
330.1299628841
 21
173.4491645428
 31
0.0
  0
LINE
  5
403
330
1F
100
AcDbEntity
  8
0
  6
Continuous
 62
     7
370
    25
100
AcDbLine
 10
330.1299628841
 20
174.4294269504
 30
0.0
 11
330.1299628841
 21
190.5427857385
 31
0.0
  0
LINE
  5
404
330
1F
100
AcDbEntity
  8
0
  6
Continuous
 62
     7
370
    25
100
AcDbLine
 10
332.3648145523
 20
151.5520605851
 30
0.0
 11
332.3648145523
 21
159.6415749284
 31
0.0
  0
LINE
  5
405
330
1F
100
AcDbEntity
  8
0
  6
Continuous
 62
     7
370
    25
100
AcDbLine
 10
332.3648145523
 20
160.6215749284
 30
0.0
 11
332.3648145523
 21
173.3974434212
 31
0.0
  0
LINE
  5
406
330
1F
100
AcDbEntity
  8
0
  6
Continuous
 62
     7
370
    25
100
AcDbLine
 10
332.3648145523
 20
174.3777058288
 30
0.0
 11
332.3648145523
 21
184.4479394149
 31
0.0
  0
LINE
  5
407
330
1F
100
AcDbEntity
  8
0
  6
Continuous
 62
     7
370
    25
100
AcDbLine
 10
368.1822669587
 20
180.839202573
 30
0.0
 11
368.1822669587
 21
173.548783339
 31
0.0
  0
LINE
  5
408
330
1F
100
AcDbEntity
  8
0
  6
Continuous
 62
     7
370
    25
100
AcDbLine
 10
368.1822669587
 20
172.5685209314
 30
0.0
 11
368.1822669587
 21
160.6215749284
 31
0.0
  0
LINE
  5
409
330
1F
100
AcDbEntity
  8
0
  6
Continuous
 62
     7
370
    25
100
AcDbLine
 10
368.1822669587
 20
159.6415749284
 30
0.0
 11
368.1822669587
 21
155.160797427
 31
0.0
  0
ARC
  5
40A
330
1F
100
AcDbEntity
  8
0
  6
Continuous
 62
     7
370
    25
100
AcDbCircle
 10
260.8941736539
 20
151.150704968
 30
0.0
 40
107.2929528828732
100
AcDbArc
 50
359.4973066881
 51
0.5453219143
  0
LINE
  5
40B
330
1F
100
AcDbEntity
  8
0
  6
Continuous
 62
     7
370
    25
100
AcDbLine
 10
380.6735407555
 20
152.6047224135
 30
0.0
 11
380.6735407555
 21
156.9373247705
 31
0.0
  0
LINE
  5
40C
330
1F
100
AcDbEntity
  8
0
  6
Continuous
 62
     7
370
    25
100
AcDbLine
 10
369.1691774877
 20
152.5043253562
 30
0.0
 11
369.1691774877
 21
153.1420518014
 31
0.0
  0
LINE
  5
40D
330
1F
100
AcDbEntity
  8
0
  6
Continuous
 62
     7
370
    25
100
AcDbLine
 10
380.6735407555
 20
179.0626752295
 30
0.0
 11
380.6735407555
 21
183.3952775865
 31
0.0
  0
LINE
  5
40E
330
1F
100
AcDbEntity
  8
0
  6
Continuous
 62
     7
370
    25
100
AcDbLine
 10
369.1691774877
 20
182.8579481986
 30
0.0
 11
369.1691774877
 21
183.4956746438
 31
0.0
  0
LINE
  5
40F
330
1F
100
AcDbEntity
  8
0
  6
Continuous
 62
     7
370
    25
100
AcDbLine
 10
369.1648145523
 20
157.3132078539
 30
0.0
 11
369.1648145523
 21
159.6415749284
 31
0.0
  0
LINE
  5
410
330
1F
100
AcDbEntity
  8
0
  6
Continuous
 62
     7
370
    25
100
AcDbLine
 10
369.1648145523
 20
160.6215749284
 30
0.0
 11
369.1648145523
 21
172.5457818547
 31
0.0
  0
LINE
  5
411
330
1F
100
AcDbEntity
  8
0
  6
Continuous
 62
     7
370
    25
100
AcDbLine
 10
369.1648145523
 20
173.5260442623
 30
0.0
 11
369.1648145523
 21
178.6867921461
 31
0.0
  0
LINE
  5
412
330
1F
100
AcDbEntity
  8
0
  6
Continuous
 62
     7
370
    25
100
AcDbLine
 10
380.6735407555
 20
157.3417227309
 30
0.0
 11
380.6735407555
 21
159.6510081696
 31
0.0
  0
LINE
  5
413
330
1F
100
AcDbEntity
  8
0
  6
Continuous
 62
     7
370
    25
100
AcDbLine
 10
380.6735407555
 20
160.6311631711
 30
0.0
 11
380.6735407555
 21
161.4510081696
 31
0.0
  0
LINE
  5
414
330
1F
100
AcDbEntity
  8
0
  6
Continuous
 62
     7
370
    25
100
AcDbLine
 10
380.6735407555
 20
162.4311615671
 30
0.0
 11
380.6735407555
 21
163.2510081696
 31
0.0
  0
LINE
  5
415
330
1F
100
AcDbEntity
  8
0
  6
Continuous
 62
     7
370
    25
100
AcDbLine
 10
380.6735407555
 20
173.2596980724
 30
0.0
 11
380.6735407555
 21
178.6582772691
 31
0.0
  0
LINE
  5
416
330
1F
100
AcDbEntity
  8
0
  6
Continuous
 62
     7
370
    25
100
AcDbLine
 10
332.3665909116
 20
149.4887281844
 30
0.0
 11
332.3652546754
 21
149.5325443851
 31
0.0
  0
LINE
  5
417
330
1F
100
AcDbEntity
  8
0
  6
Continuous
 62
     7
370
    25
100
AcDbLine
 10
332.365254641
 20
186.4674544826
 30
0.0
 11
332.3665909105
 21
186.5112717599
 31
0.0
  0
LINE
  5
418
330
1F
100
AcDbEntity
  8
0
  6
Continuous
 62
     7
370
    25
100
AcDbLine
 10
332.3691774877
 20
148.6831766215
 30
0.0
 11
332.3691774877
 21
149.3206970336
 31
0.0
  0
LINE
  5
419
330
1F
100
AcDbEntity
  8
0
  6
Continuous
 62
     7
370
    25
100
AcDbLine
 10
332.3691774877
 20
186.6793029664
 30
0.0
 11
332.3691774877
 21
187.3168233785
 31
0.0
  0
ENDSEC
  0
SECTION
  2
OBJECTS
  0
DICTIONARY
  5
C
330
0
100
AcDbDictionary
281
     1
  3
ACAD_GROUP
350
D
  3
ACAD_LAYOUT
350
1A
  3
ACAD_MLINESTYLE
350
17
  3
ACAD_PLOTSETTINGS
350
19
  3
ACAD_PLOTSTYLENAME
350
E
  3
ACAD_SCALELIST
350
47
  3
DWGPROPS
350
41A
  0
DICTIONARY
  5
D
102
{ACAD_REACTORS
330
C
102
}
330
C
100
AcDbDictionary
281
     1
  0
DICTIONARY
  5
1A
102
{ACAD_REACTORS
330
C
102
}
330
C
100
AcDbDictionary
281
     1
  3
Layout1
350
1E
  3
Layout2
350
26
  3
Model
350
22
  0
DICTIONARY
  5
17
102
{ACAD_REACTORS
330
C
102
}
330
C
100
AcDbDictionary
281
     1
  3
Standard
350
18
  0
DICTIONARY
  5
19
102
{ACAD_REACTORS
330
C
102
}
330
C
100
AcDbDictionary
281
     1
  0
ACDBDICTIONARYWDFLT
  5
E
102
{ACAD_REACTORS
330
C
102
}
330
C
100
AcDbDictionary
281
     1
  3
Normal
350
F
100
AcDbDictionaryWithDefault
340
F
  0
DICTIONARY
  5
47
102
{ACAD_REACTORS
330
C
102
}
330
C
100
AcDbDictionary
281
     1
  3
A0
350
48
  3
A1
350
49
  3
A2
350
4A
  3
A3
350
4B
  3
A4
350
4C
  3
A5
350
4D
  3
A6
350
4E
  3
A7
350
4F
  3
A8
350
50
  3
A9
350
51
  3
B0
350
52
  3
B1
350
53
  3
B2
350
54
  3
B3
350
55
  3
B4
350
56
  3
B5
350
57
  3
B6
350
58
  0
XRECORD
  5
41A
102
{ACAD_REACTORS
330
C
102
}
330
C
100
AcDbXrecord
280
     1
  1
DWGPROPS COOKIE
  2

  3

  4

  6

  7

  8
SKriemadi
  9

300
=
301
=
302
=
303
=
304
=
305
=
306
=
307
=
308
=
309
=
 40
0.0
 41
2460088.443994444
 42
2460088.443994965
  1

 90
        0
  0
LAYOUT
  5
1E
102
{ACAD_REACTORS
330
1A
102
}
330
1A
100
AcDbPlotSettings
  1

  2
none_device
  4

  6

 40
0.0
 41
0.0
 42
0.0
 43
0.0
 44
0.0
 45
0.0
 46
0.0
 47
0.0
 48
0.0
 49
0.0
140
0.0
141
0.0
142
1.0
143
1.0
 70
   688
 72
     1
 73
     0
 74
     5
  7

 75
    16
147
1.0
148
0.0
149
0.0
100
AcDbLayout
  1
Layout1
 70
     1
 71
     1
 10
0.0
 20
0.0
 11
420.0
 21
297.0
 12
0.0
 22
0.0
 32
0.0
 14
1.0000000000E+20
 24
1.0000000000E+20
 34
1.0000000000E+20
 15
-1.0000000000E+20
 25
-1.0000000000E+20
 35
-1.0000000000E+20
146
0.0
 13
0.0
 23
0.0
 33
0.0
 16
1.0
 26
0.0
 36
0.0
 17
0.0
 27
1.0
 37
0.0
 76
     0
330
1B
  0
LAYOUT
  5
26
102
{ACAD_REACTORS
330
1A
102
}
330
1A
100
AcDbPlotSettings
  1

  2
none_device
  4

  6

 40
0.0
 41
0.0
 42
0.0
 43
0.0
 44
0.0
 45
0.0
 46
0.0
 47
0.0
 48
0.0
 49
0.0
140
0.0
141
0.0
142
1.0
143
1.0
 70
   688
 72
     1
 73
     0
 74
     5
  7

 75
    16
147
1.0
148
0.0
149
0.0
100
AcDbLayout
  1
Layout2
 70
     1
 71
     2
 10
0.0
 20
0.0
 11
0.0
 21
0.0
 12
0.0
 22
0.0
 32
0.0
 14
0.0
 24
0.0
 34
0.0
 15
0.0
 25
0.0
 35
0.0
146
0.0
 13
0.0
 23
0.0
 33
0.0
 16
1.0
 26
0.0
 36
0.0
 17
0.0
 27
1.0
 37
0.0
 76
     0
330
23
  0
LAYOUT
  5
22
102
{ACAD_REACTORS
330
1A
102
}
330
1A
100
AcDbPlotSettings
  1

  2
none_device
  4
Letter_(8.50_x_11.00_Inches)
  6

 40
6.35
 41
6.35
 42
6.35000508
 43
6.35000508
 44
215.9
 45
279.4
 46
0.0
 47
0.0
 48
0.0
 49
0.0
140
0.0
141
0.0
142
1.0
143
1.0
 70
  1712
 72
     1
 73
     0
 74
     0
  7

 75
     0
147
1.0
148
0.0
149
0.0
100
AcDbLayout
  1
Model
 70
     1
 71
     0
 10
0.0
 20
0.0
 11
594.0
 21
420.0
 12
0.0
 22
0.0
 32
0.0
 14
0.0
 24
0.0
 34
0.0
 15
594.0
 25
420.0
 35
0.0
146
0.0
 13
0.0
 23
0.0
 33
0.0
 16
1.0
 26
0.0
 36
0.0
 17
0.0
 27
1.0
 37
0.0
 76
     0
330
1F
331
29
  0
MLINESTYLE
  5
18
102
{ACAD_REACTORS
330
17
102
}
330
17
100
AcDbMlineStyle
  2
Standard
 70
     0
  3

 62
   256
 51
90.0
 52
90.0
 71
     2
 49
0.5
 62
   256
  6
BYLAYER
 49
-0.5
 62
   256
  6
BYLAYER
  0
ACDBPLACEHOLDER
  5
F
102
{ACAD_REACTORS
330
E
102
}
330
E
  0
SCALE
  5
48
102
{ACAD_REACTORS
330
47
102
}
330
47
100
AcDbScale
 70
     0
300
1:1
140
1.0
141
1.0
290
     1
  0
SCALE
  5
49
102
{ACAD_REACTORS
330
47
102
}
330
47
100
AcDbScale
 70
     0
300
1:2
140
1.0
141
2.0
290
     0
  0
SCALE
  5
4A
102
{ACAD_REACTORS
330
47
102
}
330
47
100
AcDbScale
 70
     0
300
1:4
140
1.0
141
4.0
290
     0
  0
SCALE
  5
4B
102
{ACAD_REACTORS
330
47
102
}
330
47
100
AcDbScale
 70
     0
300
1:5
140
1.0
141
5.0
290
     0
  0
SCALE
  5
4C
102
{ACAD_REACTORS
330
47
102
}
330
47
100
AcDbScale
 70
     0
300
1:8
140
1.0
141
8.0
290
     0
  0
SCALE
  5
4D
102
{ACAD_REACTORS
330
47
102
}
330
47
100
AcDbScale
 70
     0
300
1:10
140
1.0
141
10.0
290
     0
  0
SCALE
  5
4E
102
{ACAD_REACTORS
330
47
102
}
330
47
100
AcDbScale
 70
     0
300
1:16
140
1.0
141
16.0
290
     0
  0
SCALE
  5
4F
102
{ACAD_REACTORS
330
47
102
}
330
47
100
AcDbScale
 70
     0
300
1:20
140
1.0
141
20.0
290
     0
  0
SCALE
  5
50
102
{ACAD_REACTORS
330
47
102
}
330
47
100
AcDbScale
 70
     0
300
1:30
140
1.0
141
30.0
290
     0
  0
SCALE
  5
51
102
{ACAD_REACTORS
330
47
102
}
330
47
100
AcDbScale
 70
     0
300
1:40
140
1.0
141
40.0
290
     0
  0
SCALE
  5
52
102
{ACAD_REACTORS
330
47
102
}
330
47
100
AcDbScale
 70
     0
300
1:50
140
1.0
141
50.0
290
     0
  0
SCALE
  5
53
102
{ACAD_REACTORS
330
47
102
}
330
47
100
AcDbScale
 70
     0
300
1:100
140
1.0
141
100.0
290
     0
  0
SCALE
  5
54
102
{ACAD_REACTORS
330
47
102
}
330
47
100
AcDbScale
 70
     0
300
2:1
140
2.0
141
1.0
290
     0
  0
SCALE
  5
55
102
{ACAD_REACTORS
330
47
102
}
330
47
100
AcDbScale
 70
     0
300
4:1
140
4.0
141
1.0
290
     0
  0
SCALE
  5
56
102
{ACAD_REACTORS
330
47
102
}
330
47
100
AcDbScale
 70
     0
300
8:1
140
8.0
141
1.0
290
     0
  0
SCALE
  5
57
102
{ACAD_REACTORS
330
47
102
}
330
47
100
AcDbScale
 70
     0
300
10:1
140
10.0
141
1.0
290
     0
  0
SCALE
  5
58
102
{ACAD_REACTORS
330
47
102
}
330
47
100
AcDbScale
 70
     0
300
100:1
140
100.0
141
1.0
290
     0
  0
ENDSEC
  0
EOF
